Oops, an error
Loading. Please wait.

Friends And Alibis Tab

version 2
version 2

Whole song

Interactive

4,067 views 1 this week
1 commentread comment
1 2 3 4 5
please rate
add to favorites
launch autoscroll
font size
0
reset
how to read this tab
guitar tuner
Autoscroll
slow
fast
+/-
esc
set tempo
stop
Help us to improve Ultimate-Guitar.com Take our survey!
×
Tuning
C G C F A D
Friends and Alibis
by Escape The Fate

intro
guitar 1
d|-----------------------------------------------------|
a|-2020202020-191919191919-1717171717-151515151515-----|
f|-2121212121-212121212121-2121212121-212121212121-----|
c|-----------------------------------------------------|
g|-----------------------------------------------------|
c|-----------------------------------------------------|x2

or play it like this with an octave effect (much easier)

d|-0-0-0-0-0--0-0-0-0-0-0--0-0-0-0-0--0-0-0-0-0-0------|
a|-8-8-8-8-8--7-7-7-7-7-7--5-5-5-5-5--3-3-3-3-3-3------|
f|-----------------------------------------------------|
c|-----------------------------------------------------|
g|-----------------------------------------------------|
c|-----------------------------------------------------|x2

verse 1
guitar 1
d|-----------------------------------------------------|
a|-2020202020-191919191919-1717171717-151515151515-----|
f|--x-x-x-x-x--x-x-x-x-x-x--x-x-x-x-x--x-x-x-x-x-x-----|
c|-1717171717-161616161616-1414141414-121212121212-----|
g|-----------------------------------------------------|
c|-----------------------------------------------------|x2

guitar 2
d|-----------------------------------------------------|
a|-----------------------------------------------------|
f|-----------------------------------------------------|
c|-22222222--99999999--101010101010--121212121212------|
g|-22222222--99999999--101010101010--121212121212------|
c|-22222222--99999999--101010101010--121212121212------|

guitar 1
d|-00000000--00000000---0-0-0-0-0-0---0-0-0-0-0-0------|
a|-88888888--33335555---5-5-5-5-5-5---3-3-3-3-3-3------|
f|-----------------------------------------------------|
c|-----------------------------------------------------|
g|-----------------------------------------------------|
c|-----------------------------------------------------|

guitar 2
d|-----------------------------------------------------|
a|-----------------------------------------------------|
f|-----------------------------------------------------|
c|-22222222--99999999--101010101010--121212121212------|
g|-22222222--99999999--101010101010--121212121212------|
c|-22222222--99999999--101010101010--121212121212------|

pre-chorus
guitar 1
d|-00000000--000000000000------------------------------|
a|-33333333--555555555555--888888888888--777777777777--|
f|-----------------------------------------------------|
c|-----------------------------------------------------|
g|-----------------------------------------------------|
c|-----------------------------------------------------|x2

guitar 2
d|-----------------------------------------------------|
a|-----------------------------------------------------|
f|-----------------------------------------------------|
c|-99999999--101010101010--141414141414--121212121212--|
g|-99999999--101010101010--141414141414--121212121212--|
c|-99999999--101010101010--141414141414--121212121212--|x2

chorus
guitar 1
d|-----------------------------------------------------|
a|-8~-20-19-15--20-19-15/17--13-12-13--8-10--13-12-10--|
f|-x---x--x--x---x--x--x--x---x--x--x--x--x---x--x--x--|
c|-5~-17-16-12--17-16-12/14--10--8-10--5--7--10--9--7--|
g|-----------------------------------------------------|
c|-----------------------------------------------------|x2

guitar 2
d|-----------------------------------------------------|
a|-----------------------------------------------------|
f|-----------------------------------------------------|
c|-555555--999999--101010101010--121212--131313--------|
g|-555555--999999--101010101010--121212--131313--------|
c|-555555--999999--101010101010--121212--131313--------|x2

post chorus
guitar 1
d|-00000000--00000000---0-0-0-0-0-0---0-0-0-0-0-0------|
a|-88888888--33335555---5-5-5-5-5-5---3-3-3-3-3-3------|
f|-----------------------------------------------------|
c|-----------------------------------------------------|
g|-----------------------------------------------------|
c|-----------------------------------------------------|

guitar 2
d|-----------------------------------------------------|
a|-----------------------------------------------------|
f|-----------------------------------------------------|
c|-22222222--99999999--101010101010--121212121212------|
g|-22222222--99999999--101010101010--121212121212------|
c|-22222222--99999999--101010101010--121212121212------|

verse 2
guitar 1
d|-00000000--00000000---0-0-0-0-0-0---0-0-0-0-0-0------|
a|-88888888--33335555---5-5-5-5-5-5---3-3-3-3-3-3------|
f|-----------------------------------------------------|
c|-----------------------------------------------------|
g|-----------------------------------------------------|
c|-----------------------------------------------------|

guitar 2
d|-----------------------------------------------------|
a|-----------------------------------------------------|
f|-----------------------------------------------------|
c|-22222222--99999999--101010101010--121212121212------|
g|-22222222--99999999--101010101010--121212121212------|
c|-22222222--99999999--101010101010--121212121212------|

guitar 1
guitar 1
d|-00000000--00000000---0-0-0-0-0-0-0-0--0-0-0-0-0-0---|
a|-88888888--33335555---5-5-5-5-5-5-5-5--3-3-3-3-3-3---|
f|-........-------------.-.-.-.-.-.-.-.----------------|
c|-----------------------------------------------------|
g|-----------------------------------------------------|
c|-----------------------------------------------------|

guitar 2
d|-----------------------------------------------------|
a|-----------------------------------------------------|
f|-........-------------.-.-.-.-.-.-.-.----------------|
c|-22222222--99999999--1010101010101010--121212121212--|
g|-22222222--99999999--1010101010101010--121212121212--|
c|-22222222--99999999--1010101010101010--121212121212--|

(play pre-chorus)

(play chorus)

interlude
guitar 1
d|-----------------------------------------------------|
a|-2020202020-191919191919-1717171717-151515151515-----|
f|-2121212121-212121212121-2121212121-212121212121-----|
c|-----------------------------------------------------|
g|-----------------------------------------------------|
c|-----------------------------------------------------|x2

guitar 2                pm--------|
d|-----------------------------------------------------|
a|-----------------------------------------------------|
f|-------.---------------------------------------------|
c|-2~----2----------2~----22222222---------------------|
g|-2~----2----------2~----22222222-pickslide/////////--|
c|-2~----2----------2~----22222222---------------------|

both guitars
d|-----------------------------------------------------|
a|-----------------------------------------------------|
f|-----------------------------------------------------|
c|-2-2-2-2-2-2-0-0-0-0-0-0-5-5-5-5-5-5-10-10-10/1-1-1--|
g|-2-2-2-2-2-2-0-0-0-0-0-0-5-5-5-5-5-5-10-10-10/1-1-1--|
c|-2-2-2-2-2-2-0-0-0-0-0-0-5-5-5-5-5-5-10-10-10/1-1-1--|

guitar 1
d|-0-0-0-0-0-0-----------------------------------------|
a|-7-7-7-8-8-8-------------------------3*--------------|
f|------------------------------(natural)--------------|
c|-----------------------------------------------------|
g|-----------------------------------------///////////-|
c|----------------------------------------///////////--|

guitar 2
d|-----------------------------------------------------|
a|-----------------------------------------------------|
f|-----------------------------------------------------|
c|-2-2-2-2-2-2-0-0-0-0-0-0-5-5-5-5-5-5-10-10-10/1-1-1--|
g|-2-2-2-2-2-2-0-0-0-0-0-0-5-5-5-5-5-5-10-10-10/1-1-1--|
c|-2-2-2-2-2-2-0-0-0-0-0-0-5-5-5-5-5-5-10-10-10/1-1-1--|

guitar 1
d|-0-0-0-0-0-0-0-0-0-0-0-0-0-0-0-0-0-0--0--0--0-0-0-0--|
a|-7-7-7-7/3-5\7-7-7-8-7-3-0-0-0-0-0-0--3--3--3-5-5-5--|
f|-----------------------------------------------------|
c|-----------------------------------------------------|
g|-----------------------------------------------------|
c|-----------------------------------------------------|

guitar 2
d|-----------------------------------------------------|
a|-----------------------------------------------------|
f|-----------------------------------------------------|
c|-2-2-2-2-2-2-0-0-0-0-0-0-5-5-5-5-5-5-10-10-10/1-1-1--|
g|-2-2-2-2-2-2-0-0-0-0-0-0-5-5-5-5-5-5-10-10-10/1-1-1--|
c|-2-2-2-2-2-2-0-0-0-0-0-0-5-5-5-5-5-5-10-10-10/1-1-1--|

guitar 1
d|-0-0-0-0-0-0-0-0-0-0-0-0-0-0-0-0-0-0-----------------|
a|-7-7-7-7/3-5\7-7-7-8-7-3-0-0-0-0-0-0--3--3--3-4-4-4--|
f|-----------------------------------------------------|
c|-----------------------------------------------------|
g|-----------------------------------------------------|
c|-----------------------------------------------------|

guitar 2
d|-----------------------------------------------------|
a|-----------------------------------------------------|
f|-----------------------------------------------------|
c|-2-2-2-2-2-2-0-0-0-0-0-0-5-5-5-5-5-5-10-10-10/1-1-1--|
g|-2-2-2-2-2-2-0-0-0-0-0-0-5-5-5-5-5-5-10-10-10/1-1-1--|
c|-2-2-2-2-2-2-0-0-0-0-0-0-5-5-5-5-5-5-10-10-10/1-1-1--|

guitar 1
d|--------------------------------------7h8------------|
a|---8-------------------8-7-------5---------------2---|
f|------------------5*-------7---7------------------0--|
c|---------------/5*--5*-------9------9------5/7\1~~~--|
g|--------10-9-5---------------------------------------|
c|-5---5-----------------------------------------------|

d|--------------------------------------7h8------------|
a|---8-------------------8-7-------5-------------------|
f|------------------5*-------7---7----------4--5--0--2-|
c|---------------/5*--5*-------9------9----------------|
g|--------10-9-5---------------------------------------|
c|-5---5-----------------------------------------------|

guitar 2
d|-----------------------------------------------------|
a|-----------------------------------------------------|
f|-----------------------------------------------------|
c|-----------------------------------------0-0-0-1-1-1-|
g|-----------------------------------------0-0-0-1-1-1-|
c|-----------------------------------------0-0-0-1-1-1-|

(repeat chorus until the end)

at the end of the last chorus play this:
guitar 1
d|-----------------------------------------------------|
a|--13--12--10--13--12--10--13--12--10---8~~~~~--------|
f|---x---x---x---x---x---x---x---x---x---x-------------|
c|--10---9---7--10---9---7--10---9---7---5~~~~~--------|
g|-----------------------------------------------------|
c|-----------------------------------------------------|

guitar 2
d|-----------------------------------------------------|
a|-----------------------------------------------------|
f|-----------------------------------------------------|
c|--13--13--13--13--13--13--13--13--13---5~~~~~--------|
g|--13--13--13--13--13--13--13--13--13---5~~~~~--------|
c|--13--13--13--13--13--13--13--13--13---5~~~~~--------|

the end
my favorite song off of this album
Suggest correction
Give kudos to tab author, rate the tab!
1 2 3 4 5
comments
print report bad tab
1 comment total.
0 reply
ibanezeric82 103 wrote on July 20 2009, 02:42 am

It sounds a lot better if you play the higher power chords on the A, D, and G strings. So 244 instead of 999 and so on.

guest
You may want to rate the tab now too:
select rating
Wanna post a correction for this tab? Suggest correction