Oops, an error
Loading. Please wait.
We have Chord Pro version of Gorgeous Nightmare.
It's the closest thing you can get to the original song and it has interactive parts. Check out the tab »
×
2,607 views 3 this week
no commentswrite comment
1 2 3 4 5
3 more votes to show rating
add to favorites
launch autoscroll
font size
0
reset
how to read this tab
guitar tuner
Autoscroll
slow
fast
+/-
esc
set tempo
stop
Author
Difficulty
Tuning
intermediate
C G C F A D
d|---------------------------------------------------------------------------|
A|------------------------------------20-19-20b21r20b22r20-------------------|
F|---------------------20-19-19b21r19----------------------------------------|
C|---------19-20-19-17-------------------------------------------------------|
G|-18b-20b-------------------------------------------------------------------|
C|---------------------------------------------------------------------------|

d|---------------------------------------------------------------------------|
A|---------------------------------------------------------------------------|
F|---------------------------------------------------------------------------|
C|-20-19-17-15-17---20-19-17-15-17-14h17p14-------------14h17p14-------------|
G|------------------------------------------17-15-15-15----------17-15-15-15-|
C|---------------------------------------------------------------------------|
                                               ********             ********

d|----------------------------------------------------------------------------------|
A|----------------------------------------------------------------------------------|
F|----------------------------------------------------------18h21p18----------------|
C|-15h18p15-------18h21p18-------------18h21p18----------------------19-23b24t~r23db|
G|----------17-17----------21-19-19-19----------21-19-19-19-------------------------|
C|----------------------------------------------------------------------------------|
                              ********             ********

d|--------------------------------------------------10-13b14r13-12b13r12-10--|
A|---------------------------------------------------------------------------|
F|-------------------------0-------------------------------------------------|
C|---3-0---3-0---0-X-X---3-----2b---3-0---3-0---0----------------------------|
G|-----------------X-X-1-----0-----------------------------------------------|
C|-------0-----0---X-X------------------0-----0------------------------------|


Legend
* - Muted note
X - Dead note
b - Bend
r - Release
db - Dive bomb
t - Tremolo pick
~ - Let note ring
Suggest correction
Give kudos to tab author, rate the tab!
1 2 3 4 5
comments
print report bad tab
guest
You may want to rate the tab now too:
select rating
Wanna post a correction for this tab? Suggest correction