Oops, an error
Loading. Please wait.
We have Chord Pro version of Gorgeous Nightmare.
It's the closest thing you can get to the original song and it has interactive parts. Check out the tab »
×
50,763 views 12 this week
4 commentsread comments
1 2 3 4 5
x 10
add to favorites
launch autoscroll
font size
0
reset
how to read this tab
guitar tuner
Autoscroll
slow
fast
+/-
esc
set tempo
stop
Author
Tuning
C G C F A D
-------------------------------------------------------------------------------
                           Gorgeous Nightmare  - Escape The Fate
-------------------------------------------------------------------------------
Tabbed by: Ted Mosby
Email: lame_xtric@yahoo.com

Tuning: Drop C


Intro
D|--------------------------------------------|4x
A|--------------------------------------------|
F|--------------------------------------------|
C|----3-0-----3-0---------0-3-2-0-2b----------|
G|--------5-------0-5---1---------------------|
C|--------------------------------------------|

D|-------------------------------|4x
A|-------------------------------|
F|-------------------------------|
C|----9s10-00-10-00-7---8877-----|
G|----7s8--00-8--00-5---8877-----|
C|---------00----00-----8877-----|

0:43
D|-----------------|4x
A|-----------------|
F|-----------------|
C|--3-00-3-0000----|
G|--3-00-3-0000----|
C|--3-00-3-0000----|

Chorus
D|--------------------------------------------|
A|--------------------------------------------|
F|-----------------5555-----------------------|
C|--8888-7777-0000-5555-8888-5555-777777-xx---|
G|--8888-7777-0000-3333-8888-5555-777777-xx---|
C|--8888-7777-0000------8888-5555-777777-xx---|

D|---------------------------|2x
A|---------------------------|
F|---------------------------|
C|--3-00-3-0000--000--000----|
G|--3-00-3-0000--000--000----|
C|--3-00-3-0000--000--000----|

1:32
D|-----------------|4x
A|-----------------|
F|-----------------|
C|--3-00-3-0000----|
G|--3-00-3-0000----|
C|--3-00-3-0000----|

Chorus
D|--------------------------------------------|
A|--------------------------------------------|
F|-----------------5555-----------------------|
C|--8888-7777-0000-5555-8888-5555-777777-xx---|
G|--8888-7777-0000-3333-8888-5555-777777-xx---|
C|--8888-7777-0000------8888-5555-777777-xx---|

D|---------------------------|2x
A|---------------------------|
F|---------------------------|
C|--3-00-3-0000--000--000----|
G|--3-00-3-0000--000--000----|
C|--3-00-3-0000--000--000----|

Solo..

2:22
D|--------------------------------------------|
A|--------------------------------------------|
F|--------------------------------------------|
C|----3-0-----3-0---------0-3-2-0-2b----------|
G|--------5-------0-5---1---------------------|
C|--------------------------------------------|


D|---------------------------------------|
A|------------------------18b-18-16-15b--|
F|---------------------15----------------|
C|----3-0-----3-0------------------------|
G|--------5-------0-5--------------------|
C|---------------------------------------|

Chorus
D|--------------------------------------------|
A|--------------------------------------------|
F|-----------------5555-----------------------|
C|--8888-7777-0000-5555-8888-5555-777777-xx---|
G|--8888-7777-0000-3333-8888-5555-777777-xx---|
C|--8888-7777-0000------8888-5555-777777-xx---|

D|--------------------------------------------|
A|--------------------------------------------|
F|-----------------5555-----------------------|
C|--8888-7777-0000-5555-8888-5555-777777-xx---|
G|--8888-7777-0000-3333-8888-5555-777777-xx---|
C|--8888-7777-0000------8888-5555-777777-xx---|

Outro
D|---------------------------|4x 
A|---------------------------|   
F|---------------------------|   
C|--3-00-3-0000--000--000----|  
G|--3-00-3-0000--000--000----|   
C|--3-00-3-0000--000--000----|   
Suggest correction
comments
print report bad tab
4 comments total. Showing first comments.
0 reply
drgoogs32 175 Mar 10, 2011 10:47 AM

I think this...
D|--------------------------------------------|
A|--------------------------------------------|
F|--------------------------------------------|
C|----3-0-----3-0---------0-3-2-0-2b----------|
G|--------5-------0-5---1---------------------|
C|--------------------------------------------|

should be...
D|--------------------------------------------|
A|--------------------------------------------|
F|----*-------*-------------0-----------------|
C|----3p0-0---3p0---0-----3---3-0-2b----------|
G|----------------0-----1-------2-------------|
C|--------------------------------------------|
the * is a pinched harmonic
good tab 4*

0 reply
Barely Legal 10 May 11, 2011 01:46 AM

does ANYONE know where to find the solo for this?!?!?!

0 reply
EscapeTheFall27 10 Dec 09, 2012 03:49 PM

great beat to this song, nice tabs!!!

guest
You may want to rate the tab now too:
select rating
Wanna post a correction for this tab? Suggest correction