Oops, an error
Loading. Please wait.

Gorgeous Nightmare Tab

version 4
version 4

Interactive

2,273 views 3 this week
no commentswrite comment
1 2 3 4 5
2 more votes to show rating
add to favorites
launch autoscroll
font size
0
reset
how to read this tab
guitar tuner
Autoscroll
slow
fast
+/-
esc
set tempo
stop
Help us to improve Ultimate-Guitar.com Take our survey!
×
Author
Difficulty
Tuning
intermediate
C G C F A D
Intro
D|--------------------------------------------|
A|--------------------------------------------|
F|---------------------------------0~---------|
C|----3*-----3*-----------x-x----2~-----2*----|
G|------5*-----5*---5*----x-x--1~-----0-------|
C|--------0*-----0*-------x-x-----------------|

D|-------------------------------|
A|-------------------------------|
F|-------------------------------|
C|----3-00-3-000---3333-222------|
G|----3-00-3-000---1111-000------|
C|----3-00-3-000-----------------|

D|-----------------|
A|-----------------|
F|-----------------|
C|--3-00-3-0000----|
G|--3-00-3-0000----|
C|--3-00-3-0000----|

Chorus
D|------------------------------------------------------------------|
A|------------------------------------------------------------------|
F|------------------------------------------------------------------|
C|--33333333-22222222-77777777-55555555-33333333----------22222222--|
G|--11111111-00000000-55555555-33333333-11111111-55555555-00000000--|
C|-----------------------------------------------55555555-----------|

D|---------------------------|
A|---------------------------|
F|---------------------------|
C|--3-00-3-0000--000--000----|
G|--3-00-3-0000--000--000----|
C|--3-00-3-0000--000--000----|

D|-----------------|
A|-----------------|
F|-----------------|
C|--3-00-3-0000----|
G|--3-00-3-0000----|
C|--3-00-3-0000----|

Chorus
D|------------------------------------------------------------------|
A|------------------------------------------------------------------|
F|------------------------------------------------------------------|
C|--33333333-22222222-77777777-55555555-33333333----------22222222--|
G|--11111111-00000000-55555555-33333333-11111111-55555555-00000000--|
C|-----------------------------------------------55555555-----------|

D|---------------------------|
A|---------------------------|
F|---------------------------|
C|--3-00-3-0000--000--000----|
G|--3-00-3-0000--000--000----|
C|--3-00-3-0000--000--000----|


(Solo)


D|--------------------------------------------|4x
A|--------------------------------------------|
F|---------------------------------0~---------|
C|----3*-----3*-----------x-x----2~-----2*----|
G|------5*-----5*---5*----x-x--1~-----0-------|
C|--------0*-----0*-------x-x-----------------|

D|---------------------------------------|
A|------------------------18b-18-16-15b--|
F|---------------------15----------------|
C|----3*-----3*--------------------------|
G|------5*-----5*---5*-------------------|
C|--------0*-----0*----------------------|

Chorus
D|------------------------------------------------------------------|
A|------------------------------------------------------------------|
F|------------------------------------------------------------------|
C|--33333333-22222222-77777777-55555555-33333333----------22222222--|
G|--11111111-00000000-55555555-33333333-11111111-55555555-00000000--|
C|-----------------------------------------------55555555-----------|

D|---------------------------|
A|---------------------------|
F|---------------------------|
C|--3-00-3-0000--000--000----|
G|--3-00-3-0000--000--000----|
C|--3-00-3-0000--000--000----|

Outro
D|---------------------------|
A|---------------------------|   
F|---------------------------|   
C|--3-00-3-0000--000--000----|  
G|--3-00-3-0000--000--000----|   
C|--3-00-3-0000--000--000----|   
Suggest correction
Give kudos to tab author, rate the tab!
1 2 3 4 5
comments
print report bad tab
guest
You may want to rate the tab now too:
select rating
Wanna post a correction for this tab? Suggest correction