Oops, an error
Loading. Please wait.

Guillotine intro tab

version 2
version 2
3,507 views 1 this week
2 commentsread comments
1 2 3 4 5
2 more votes to show rating
add to favorites
×
Save as Personal and add changes to this tab that will be seen only by you. Learn more ›
×
You can save this tab as Personal to edit and correct it or add notes. All changes will be seen only by you. Learn more »
launch autoscroll
font size
0
reset
how to read this tab
guitar tuner
edit
Autoscroll
slow
fast
+/-
esc
set tempo
stop
Tuning:
Drop C

|------------------------------------------------------------------|
|------------------------------------------------------------------|
|------------------------------------------------------------------|
|---4~~~-----4~~~-------0~~~---------0-0-0-------------------------|
|---4~~~-----4~~~-------0~~~---------0-0-0-------------------------|
|---4~~~-----4~~~-------0~~~---------0-0-0-------------------------|

|------------------------------------------------------------------|
|------------------------------------------------------------------|
|------------------------------------------------------------------|
|------------------------------------------------------------------|
|---------4-----5-----7---5---4-------------5b4-0-7-0-7/9----------|
|-4h7-4h7---4-4---4-4---4---4---7---0-7-0-7------------------------|
  . . . . . . . . . . . . . . . .   . .   . . . . . .


---------|
---------|
---------|
---------| X3
---------|
-7b6b2h7-|
 . . . .


|------------------------------------------------------------------|
|------------------------------------------------------------------|
|------------------------------------------------------------------|
|----4-4-4-------2-2-2--------2-2-2--2-2-2-------4-4-4------7-7-7--|
|----4-4-4-------2-2-2--------2-2-2--2-2-2-------4-4-4------7-7-7--|
|----4-4-4-------2 2-2--------2-2-2--2-2-2-------4-4-4------7-7-7--|

---------------------------|
---------------------------|
---------------------------|
-2-2-2--2-2-2-------0-0-0--|
-2-2-2--2-2-2-------0-0-0--|
-2-2-2--2-2-2-------0-0-0--|

|-----------------------------------|
|-----------------------------------|
|--------------4h6h4----------------|
|--7b0-6b0-4b0-------7b0-6b0-4b0----|
|-----------------------------------|              
|-----------------------------------|

|-----------------------------------|
|-----------------------------------| 
|--------------4h6h4----------------|
|--7b--6b--4b--------9b--6b----6----|
|----7---7---7---------7---7-7b-----|
|-----------------------------------|

|-----------------------------------|
|-----------------------------------|
|------------------------4b---------|
|--7b4-6b4-----4h----7b4---4-6b4----|
|----------7b4---4------------------|              
|-----------------------------------|

|-----------------------------------|
|-----------------------------------| 
|------------------6----------------|
|--7b--6b--4b----------4------------|
|----7---7---7----------------------|
|-----------------------------------|



Suggest correction
Creating personal tab
Creating personal tab
You can edit any tab online and save it as your Personal.

You can edit, replace or remove any tab part or add personal notes – all changes will be seen only by you.

Personal tabs can be accessed anytime from any device, even offline.
Learn more »
Give kudos to tab author, rate the tab!
1 2 3 4 5
comments
print report bad tab
2 comments total.
0 reply
Trigorean1 10 Feb 08, 2008 09:56 AM

its definatly not drop C

0 reply
To The End 271 Feb 10, 2008 08:54 PM

yes the song is on drop c
this is messing the other guitar,, and intro aint that good

guest
Wanna post a correction for this tab? Suggest correction