Oops, an error
Loading. Please wait.

Guillotine bass

version 2
version 2

Whole song

17,538 views 6 this week
2 commentsread comments
1 2 3 4 5
x 6
add to favorites
×
Save as Personal and add changes to this tab that will be seen only by you. Learn more ›
×
You can save this tab as Personal to edit and correct it or add notes. All changes will be seen only by you. Learn more »
launch autoscroll
font size
0
reset
guitar tuner
edit
Autoscroll
slow
fast
+/-
esc
set tempo
stop
Author
----------------------------------------------------------------------------
		          The Guillotine - Escape The Fate
----------------------------------------------------------------------------

Tabbed By : jammyrat
e-mail: mintmintmint@live.co.uk

Tuning: Drop C

Intro

F|-------------------------------------------------------------------------|
C|-------------------------------------------------------------------------|
G|-------------------------------------------------------------------------|
C|-4~-----------4~-------------0~---------------0~-------------------------|

Verse x4

F|-------------------------------------------------------------------------|
C|-------------------------------------------------------------------------|
G|-------------------------------------------------------------------------|
C|-4444444444444444-00000000-22222222--------------------------------------|

Bridge

F|-------------------------------------------------------------------------|
C|-------------------------------------------------------------------------|
G|-------------------------------------------------------------------------|
C|-000------222------222-222-444----777----------222-222-------------------|

F|-------------------------------------------------------------------------|
C|-------------------------------------------------------------------------|
G|-------------------------------------------------------------------------|
C|-000------222------222-222-444----777------------------------------------|

Chorus

F|-------------------------------------------------------------------------|
C|-------------------------------------------------------------------------|
G|-------------------------------------------------------------------------|
C|-00000000-22222222-4444444444444444--------------------------------------|
                                            
F|-------------------------------------------------------------------------|
C|-------------------------------------------------------------------------|
G|-------------------------------------------------------------------------|
C|-00000000-22222222-4444444444444444--------------------------------------|

F|-------------------------------------------------------------------------|
C|-------------------------------------------------------------------------|
G|-------------------------------------------------------------------------|
C|-77777777-9999-xxxx-000000000000000000000000-22222222-4------------------|

Verse x4

F|-------------------------------------------------------------------------|
C|-------------------------------------------------------------------------|
G|-------------------------------------------------------------------------|
C|-4444444444444444-00000000-22222222--------------------------------------|

Bridge

F|-------------------------------------------------------------------------|
C|-------------------------------------------------------------------------|
G|-------------------------------------------------------------------------|
C|-000------222------222-222-444----777----------222-222-------------------|

F|-------------------------------------------------------------------------|
C|-------------------------------------------------------------------------|
G|-------------------------------------------------------------------------|
C|-000------222------222-222-444----777------------------------------------|

Chorus

F|-------------------------------------------------------------------------|
C|-------------------------------------------------------------------------|
G|-------------------------------------------------------------------------|
C|-00000000-22222222-4444444444444444--------------------------------------|
                                            
F|-------------------------------------------------------------------------|
C|-------------------------------------------------------------------------|
G|-------------------------------------------------------------------------|
C|-00000000-22222222-4444444444444444--------------------------------------|

F|-------------------------------------------------------------------------|
C|-------------------------------------------------------------------------|
G|-------------------------------------------------------------------------|
C|-77777777-9999-xxxx-000000000000000000000000-22222222-4------------------|

Build Up

F|-------------------------------------------------------------------------|
C|-------------------------------------------------------------------------|
G|-------------------------------------------------------------------------|
C|-4~-----------4~-------------0~---------------0~-------------------------|

F|-------------------------------------------------------------------------|
C|-------------------------------------------------------------------------|
G|-------------------------------------------------------------------------|
C|-4~-----------4~-------------0~---------------0~-------------------------|

Solo x2

F|-------------------------------------------------------------------------|
C|-------------------------------------------------------------------------|
G|-------------------------------------------------------------------------|
C|-7-77-7-77-6-66-6-66-4-44-4-44-0-00-0-00---------------------------------|

Chorus

F|-------------------------------------------------------------------------|
C|-------------------------------------------------------------------------|
G|-------------------------------------------------------------------------|
C|-00000000-22222222-4444444444444444--------------------------------------|
                                            
F|-------------------------------------------------------------------------|
C|-------------------------------------------------------------------------|
G|-------------------------------------------------------------------------|
C|-00000000-22222222-4444444444444444--------------------------------------|

F|-------------------------------------------------------------------------|
C|-------------------------------------------------------------------------|
G|-------------------------------------------------------------------------|
C|-77777777-9999-xxxx-000000000000000000000000-22222222-4------------------|

Outro (Play Until Fade Out)

F|-------------------------------------------------------------------------|
C|-------------------------------------------------------------------------|
G|-------------------------------------------------------------------------|
C|-000------222------222-222-444----777----------222-222-------------------|

F|-------------------------------------------------------------------------|
C|-------------------------------------------------------------------------|
G|-------------------------------------------------------------------------|
C|-000------222------222-222-444----777------------------------------------|


| /  slide up
| \  slide down
| h  hammer-on
| p  pull-off
| ~  vibrato
| +  harmonic
| x  Mute note
============================================================================

            
            
Suggest correction
Creating personal tab
Creating personal tab
You can edit any tab online and save it as your Personal.

You can edit, replace or remove any tab part or add personal notes – all changes will be seen only by you.

Personal tabs can be accessed anytime from any device, even offline.
Learn more »
comments
print report bad tab
2 comments total.
0 reply
Beato413 278 May 25, 2009 02:47 PM

Pretty Much Perfect

0 reply
Beato413 278 Jul 28, 2009 06:34 PM

This one is way more simpler and it still sounds right.

guest
You may want to rate the tab now too:
select rating
Wanna post a correction for this tab? Suggest correction