Oops, an error
Loading. Please wait.

Guillotine tab

version 5
version 5
18,439 views 3 this week
15 commentsread comments
1 2 3 4 5
x 5
add to favorites
×
Save as Personal and add changes to this tab that will be seen only by you. Learn more ›
×
You can save this tab as Personal to edit and correct it or add notes. All changes will be seen only by you. Learn more »
launch autoscroll
font size
0
reset
how to read this tab
guitar tuner
edit
Autoscroll
slow
fast
+/-
esc
set tempo
stop
----------------------------------------------------------------------------
                    The Guillotine - Escape the Fate
----------------------------------------------------------------------------


Tabbed by:Sarah M.
Email: autumnoffering@hotmail.com

Tuning:CGCFAD

..i'd say 94% of this is incorrect.
i didn't tab out the whole solo because it was too difficult for me, i tried and tried 
got frustrated.some parts on the solo are wrong, i know..dont have to write a comment 
it is.
also, i didn't really know how to tab out parts of the solo i have because i've never 
solos before, ever so just try to understand what i'm saying. thanks. oh, one more 
tab is very unorganized because i suck at this.

 Guitar 1
D|-----------------------------------------------------------------------|
A|-----------------------------------------------------------------------|
F|-----------------------------------------------------------------------|
C|--4---------------4---------------0---------------0--------------------|
G|--4---------------4---------------0---------------0------\\\\\\\\\\\---|
C|--4---------------4---------------0---------------0-------pick-slide---|


 Guitar 2
D|-------5p2------2-----5p2------2------5p2-----2------------------------|
A|-----------2-5------------2-5-------------2-5--------------------------|
F|-----------------------------------------------------------------------|
C|-----------------------------------------------------------------------|
G|-----------------------------------------------------------------------|
C|-----------------------------------------------------------------------|


D|-----------------------------------------------------------------------|
A|-----------------------------------------------------------------------|
F|-----------------------------------------------------------------------|
C|-----------------------------------------------------------------------|x4
G|----0---0---4------5------7---5---4----------5p4---7-7/9---------------|
C|--4---4-------4--4---4--4---4---4----7-7-7-7-----7--------6h7-2h6------|

                                      OR..

D|-----------------------------------------------------------------------|
A|-----------------------------------------------------------------------|
F|-----------------------------------------------------------------------|
C|-----------------------------------------------------------------------|
G|----0---0---4------5------7---5---4--0-0-0-0-5p4-0-7-7/9---------------|
C|--4---4-------4--4---4--4---4---4-------------------------6h7-2h6------|

D|------------------------------------------------------------------------|
A|------------------------------------------------------------------14-12-|
F|------------------------------------------------------------------x--x--|
C|------------------------------------------------------------------11-9--|
G|--00--222--222-222-444--777--222-222--000--222--222-222-444--777--------|
C|--00--222--222-222-444--777--222-222--000--222--222-222-444--777--------|


 Guitar 2 comes in with..
D|-----------------------------------------------------------------------|
A|-----------------------------------------------------------------------|
F|-----------------------------------------------------------------------|
C|--7p0-6p0-4p0-9h11p9-7p0-6p0-4p0---7p0-6p0-4p0-11p9-7p0-6p0-4h6--------|
G|-----------------------------------------------------------------------|
C|-----------------------------------------------------------------------|


D|-----------------------------------------------------------------------|
A|-----------------------------------------------------------------------|
F|-----------------------------------------------------------------------|
C|--7p4-6p4-4p0-6p0-7p4-9p4-7p4--7p4-6p4-6p4-----------------------------|
G|-----------------------------------------------------------------------|
C|-----------------------------------------------------------------------|


Chorus: Guitar 1
D|-----------------------------------------------------------------------|
A|-----------------------------------------------------------------------|
F|-----------------------------------------------------------------------|
C|--0-0-0-0-0-0-0-0-2-2-2-2-2-2-2-2-4-4-4-4-4-4-4-4-4-4-4-4-4-4-4-4------|x2
G|--0-0-0-0-0-0-0-0-2-2-2-2-2-2-2-2-4-4-4-4-4-4-4-4-4-4-4-4-4-4-4-4------|
C|--0-0-0-0-0-0-0-0-2-2-2-2-2-2-2-2-4-4-4-4-4-4-4-4-4-4-4-4-4-4-4-4------|

D|-----------------------------------------------------------------------|
A|-----------------------------------------------------------------------|
F|-----------------------------------------------------------------------|
C|--7-7-7-7-7-7-7-7--9-9-9-9-x-x-x-x--0-0-0-0-0-0-0-0-0-0-0-0-0-0-0-0----|
G|--7-7-7-7-7-7-7-7--9-9-9-9-x-x-x-x--0-0-0-0-0-0-0-0-0-0-0-0-0-0-0-0----|
C|--7-7-7-7-7-7-7-7--9-9-9-9-x-x-x-x--0-0-0-0-0-0-0-0-0-0-0-0-0-0-0-0----|


D|-----------------------------------------------------------------------|
A|-----------------------------------------------------------------------|
F|-----------------------------------------------------------------------|
C|--0-0-0-0-0-0-0-0-2-2-2-2-2-2-2-2--------------------------------------|
G|--0-0-0-0-0-0-0-0-2-2-2-2-2-2-2-2--------------------------------------|
C|--0-0-0-0-0-0-0-0-2-2-2-2-2-2-2-2--------------------------------------|


Chorus: Guitar 2
D|-----------------------------------------------------------------------|
A|-----------------------------------------------------------------------|
F|--14--13--9--14--13--9---9--9--9--9--11--11--11--11--11--11--11--11----|
C|--x---x---x--x---x---x---x--x--x--x--x---x---x---x---x---x---x---x-----|x2
G|--12--11--7--12--11--7---7--7--7--7--9---9---9---9---9---9---9---9-----|
C|-----------------------------------------------------------------------|


D|-----------------------------------------------------------------------|
A|-----------------------------------------------------------------------|
F|--14--14--14--14--14--14--14--14--16--16--16--16-----------------------|
C|--x---x---x---x---x---x---x---x---x---x---x---x--x-x-x-x---------------|
G|--12--12--12--12--12--12--12--12--12--14--14--14-x-x-x-x---------------|
C|-------------------------------------------------x-x-x-x---------------|


D|-----------------------------------------------------------------------|
A|-----------------------------------------------------------------------|
F|--9--9--9--9--11--11--11--11--11--11--11--11--14--13--9--14--13--9-----|
C|--x--x--x--x--x---x---x---x---x---x---x---x---x---x---x--x---x---x-----|
G|--7--7--7--7--9---9---9---9---9---9---9---9---12--11--7--12--11--7-----|
C|-----------------------------------------------------------------------|


D|-----------------------------------------------------------------------|
A|-----------------------------------------------------------------------|
F|-----------------------------------------------------------------------|
C|-----------------------------------------------------------------------|
G|--------------------------000-000-000-000-000--------------------------|
C|--------------------------000-000-000-000-000--------------------------|
                            ... ... ... ... ...

D|-----------------------------------------------------------------------|
A|-----------------------------------------------------------------------|
F|-----------------------------------------------------------------------|
C|-----------------------------------------------------------------------|x4
G|----0---0---4------5------7---5---4--0-0-0-0-5p4-0-7-7/9---------------|
C|--4---4-------4--4---4--4---4---4-------------------------6h7-2h6------|


D|------------------------------------------------------------------------|
A|------------------------------------------------------------------14-12-|
F|------------------------------------------------------------------x--x--|
C|------------------------------------------------------------------11-9--|
G|--00--222--222-222-444--777--222-222--000--222--222-222-444--777--------|
C|--00--222--222-222-444--777--222-222--000--222--222-222-444--777--------|


Guitar 2 comes in with..
D|-----------------------------------------------------------------------|
A|-----------------------------------------------------------------------|
F|-----------------------------------------------------------------------|
C|--7p0-6p0-4p0-9h11p9-7p0-6p0-4p0---7p0-6p0-4p0-11p9-7p0-6p0-4h6--------|
G|-----------------------------------------------------------------------|
C|-----------------------------------------------------------------------|


D|-----------------------------------------------------------------------|
A|-----------------------------------------------------------------------|
F|-----------------------------------------------------------------------|
C|--7p4-6p4-4p0-6p0-7p4-9p4-7p4--7p4-6p4-6p4-----------------------------|
G|-----------------------------------------------------------------------|
C|-----------------------------------------------------------------------|


Chorus: Guitar 1
D|-----------------------------------------------------------------------|
A|-----------------------------------------------------------------------|
F|-----------------------------------------------------------------------|
C|--0-0-0-0-0-0-0-0-2-2-2-2-2-2-2-2-4-4-4-4-4-4-4-4-4-4-4-4-4-4-4-4------|x2
G|--0-0-0-0-0-0-0-0-2-2-2-2-2-2-2-2-4-4-4-4-4-4-4-4-4-4-4-4-4-4-4-4------|
C|--0-0-0-0-0-0-0-0-2-2-2-2-2-2-2-2-4-4-4-4-4-4-4-4-4-4-4-4-4-4-4-4------|


D|-----------------------------------------------------------------------|
A|-----------------------------------------------------------------------|
F|-----------------------------------------------------------------------|
C|--7-7-7-7-7-7-7-7--9-9-9-9-x-x-x-x--0-0-0-0-0-0-0-0-0-0-0-0-0-0-0-0----|
G|--7-7-7-7-7-7-7-7--9-9-9-9-x-x-x-x--0-0-0-0-0-0-0-0-0-0-0-0-0-0-0-0----|
C|--7-7-7-7-7-7-7-7--9-9-9-9-x-x-x-x--0-0-0-0-0-0-0-0-0-0-0-0-0-0-0-0----|


D|-----------------------------------------------------------------------|
A|-----------------------------------------------------------------------|
F|-----------------------------------------------------------------------|
C|--0-0-0-0-0-0-0-0-2-2-2-2-2-2-2-2--------------------------------------|
G|--0-0-0-0-0-0-0-0-2-2-2-2-2-2-2-2--------------------------------------|
C|--0-0-0-0-0-0-0-0-2-2-2-2-2-2-2-2--------------------------------------|


Chorus: Guitar 2
D|-----------------------------------------------------------------------|
A|-----------------------------------------------------------------------|
F|--14--13--9--14--13--9---9--9--9--9--11--11--11--11--11--11--11--11----|
C|--x---x---x--x---x---x---x--x--x--x--x---x---x---x---x---x---x---x-----|x2
G|--12--11--7--12--11--7---7--7--7--7--9---9---9---9---9---9---9---9-----|
C|-----------------------------------------------------------------------|


D|-----------------------------------------------------------------------|
A|-----------------------------------------------------------------------|
F|--14--14--14--14--14--14--14--14--16--16--16--16-----------------------|
C|--x---x---x---x---x---x---x---x---x---x---x---x--x-x-x-x---------------|
G|--12--12--12--12--12--12--12--12--12--14--14--14-x-x-x-x---------------|
C|-------------------------------------------------x-x-x-x---------------|


D|-----------------------------------------------------------------------|
A|-----------------------------------------------------------------------|
F|--9--9--9--9--11--11--11--11--11--11--11--11--14--13--9--14--13--9-----|
C|--x--x--x--x--x---x---x---x---x---x---x---x---x---x---x--x---x---x-----|
G|--7--7--7--7--9---9---9---9---9---9---9---9---12--11--7--12--11--7-----|
C|-----------------------------------------------------------------------|


D|-----------------------------------------------------------------------|
A|-----------------------------------------------------------------------|
F|-----------------------------------------------------------------------|
C|--4----------------4---------------0---------------0-------------------|x3
G|--4----------------4---------------0---------------0-------------------|
C|--4----------------4---------------0---------------0-------------------|


D|-----5p2------2-------5p2------2------5p2------2------5p2------2-------|
A|---------2-5--------------2-5-------------2-5-------------2-5----------|
F|-----------------------------------------------------------------------|
C|-----------------------------------------------------------------------|x3
G|-----------------------------------------------------------------------|
C|-----------------------------------------------------------------------|


D|---------------------------16-17-19--16-17-----------------------------|
A|--17-----------17--17b19r------------------17--------------------------|
F|--19b--19br-----------------------------------16-----------------------|
C|------------19-----------------------------------14--------------------|
G|----------------------------------------------------14-----------------|
C|-------------------------------------------------------14-12\----------|


 This is played during the solo.
D|-----------------------------------------------------------------------|
A|-----------------------------------------------------------------------|
F|-----------------------------------------------------------------------|
C|-------------7-77-7-77-6-66-6-66-4-44-4-44-0-00-0-00-------------------|x2
G|-------------7-77-7-77-6-66-6-66-4-44-4-44-0-00-0-00-------------------|
C|-pickslide---7-77-7-77-6-66-6-66-4-44-4-44-0-00-0-00-------------------|


 This is the harmony for the end of solo.
D|---------------------17-16-14--17-16-14-20-19\-------------------------|
A|-----------------------------------------------------------------------|
F|-----------------------------------------------------------------------|
C|-----------------------------------------------------------------------|
G|-----------------------------------------------------------------------|
C|-----------------------------------------------------------------------|


Chorus: Guitar 1
D|-----------------------------------------------------------------------|
A|-----------------------------------------------------------------------|
F|-----------------------------------------------------------------------|
C|--0-0-0-0-0-0-0-0-2-2-2-2-2-2-2-2-4-4-4-4-4-4-4-4-4-4-4-4-4-4-4-4------|x2
G|--0-0-0-0-0-0-0-0-2-2-2-2-2-2-2-2-4-4-4-4-4-4-4-4-4-4-4-4-4-4-4-4------|
C|--0-0-0-0-0-0-0-0-2-2-2-2-2-2-2-2-4-4-4-4-4-4-4-4-4-4-4-4-4-4-4-4------|


D|-----------------------------------------------------------------------|
A|-----------------------------------------------------------------------|
F|-----------------------------------------------------------------------|
C|--7-7-7-7-7-7-7-7--9-9-9-9-x-x-x-x--0-0-0-0-0-0-0-0-0-0-0-0-0-0-0-0----|
G|--7-7-7-7-7-7-7-7--9-9-9-9-x-x-x-x--0-0-0-0-0-0-0-0-0-0-0-0-0-0-0-0----|
C|--7-7-7-7-7-7-7-7--9-9-9-9-x-x-x-x--0-0-0-0-0-0-0-0-0-0-0-0-0-0-0-0----|


D|-----------------------------------------------------------------------|
A|-----------------------------------------------------------------------|
F|-----------------------------------------------------------------------|
C|--0-0-0-0-0-0-0-0-2-2-2-2-2-2-2-2--4~----------------------------------|
G|--0-0-0-0-0-0-0-0-2-2-2-2-2-2-2-2--4~----------------------------------|
C|--0-0-0-0-0-0-0-0-2-2-2-2-2-2-2-2--4~----------------------------------|


Chorus: Guitar 2
D|-----------------------------------------------------------------------|
A|-----------------------------------------------------------------------|
F|--14--13--9--14--13--9---9--9--9--9--11--11--11--11--11--11--11--11----|
C|--x---x---x--x---x---x---x--x--x--x--x---x---x---x---x---x---x---x-----|x2
G|--12--11--7--12--11--7---7--7--7--7--9---9---9---9---9---9---9---9-----|
C|-----------------------------------------------------------------------|


D|-----------------------------------------------------------------------|
A|-----------------------------------------------------------------------|
F|--14--14--14--14--14--14--14--14--16--16--16--16-----------------------|
C|--x---x---x---x---x---x---x---x---x---x---x---x--x-x-x-x---------------|
G|--12--12--12--12--12--12--12--12--12--14--14--14-x-x-x-x---------------|
C|-------------------------------------------------x-x-x-x---------------|


D|-----------------------------------------------------------------------|
A|-----------------------------------------------------------------------|
F|--9--9--9--9--11--11--11--11--11--11--11--11--14--13--9--14--13--9-----|
C|--x--x--x--x--x---x---x---x---x---x---x---x---x---x---x--x---x---x-----|
G|--7--7--7--7--9---9---9---9---9---9---9---9---12--11--7--12--11--7-----|
C|-----------------------------------------------------------------------|


 Guitar 1 outro
D|-----------------------------------------------------------------------|
A|-----------------------------------------------------------------------|
F|-----------------------------------------------------------------------|
C|-----------------------------------------------------------------------|
G|--00--222--222-222-444--777--222-222--000--222--222-222-444--777-------|
C|--00--222--222-222-444--777--222-222--000--222--222-222-444--777-------|


 Guitar 2 outro
D|-----------------------------------------------------------------------|
A|-----------------------------------------------------------------------|
F|-----------------------------------------------------------------------|
C|--7p0-6p0-4p0-9h11p9-7p0-6p0-4p0---7p0-6p0-4p0-11p9-7p0-6p0-4h6--------|
G|-----------------------------------------------------------------------|
C|-----------------------------------------------------------------------|


D|-----------------------------------------------------------------------|
A|-----------------------------------------------------------------------|
F|-----------------------------------------------------------------------|
C|--7p4-6p4-----4p0-7p4-9p4-6p4--7p4-6p4-4\2--2-6-2-6--------------------|
G|----------7p4----------------------------------------------------------|
C|-----------------------------------------------------------------------|

            
            
Suggest correction
Creating personal tab
Creating personal tab
You can edit any tab online and save it as your Personal.

You can edit, replace or remove any tab part or add personal notes – all changes will be seen only by you.

Personal tabs can be accessed anytime from any device, even offline.
Learn more »
comments
print report bad tab
15 comments total. Showing first comments.
-1 reply
todayFOREVER 93 Mar 17, 2007 01:01 PM

okay, i dont know why some words got cut off and now it doesn't make any sense. hahaha. oh well, it doesn't matter.

-1 reply
liamdaguitarist 115 Jul 07, 2007 07:26 PM

thats a good tab but i dont get the solo wens the really quick bit??

-2 reply
wongacaster 90 Aug 22, 2007 05:53 AM

the really quick bit isnt their.
to help. the really quick bit is a run in c locrian.
it sorta just ascends the scale up the neck in triplets.
i am doing a tab for it right now.
so it should be up maybe soon.
maybe not at all.
good tab though.

guest
You may want to rate the tab now too:
select rating
Wanna post a correction for this tab? Suggest correction