Oops, an error
Loading. Please wait.

Harder Than You Know Tab

version 1
version 1

Whole song

Interactive

175,018 views 66 this week
11 commentsread comments
1 2 3 4 5
x 20
add to favorites
launch autoscroll
font size
0
reset
how to read this tab
guitar tuner
Autoscroll
slow
fast
+/-
esc
set tempo
stop
Help us to improve Ultimate-Guitar.com Take our survey!
×
Author
Difficulty
intermediate
Artist: Escape the Fate
Song: Harder than you know
tabbed by: Middaysilence

 (these are the chords used throughout the song)
 Eb Gmaj7 G# G#m Bb Cm  G# G#m Gmaj7
e|-------------------------------|
B|-8---8---9---9--8--8---4--4--6-|
G|-8--10---8---8--7--8---5--4--4-|
D|-8---9--10---9--8--10--6--6--3-|
A|-6--10--11--11--8--10--6--6--5-|
E|----------------6--8---4--4--3-|

[Intro/Verse]
e|-------------------------------------------------------------| 
B|-6----8----------------8--9/8---11-9/8------8---9-8---8------|
G|---8-----8------10-----------10---------8----------8-8-8-10--|
D|----8------8-------9-----9------------10------------9--------|
A|-6-----6-----6--10---10---------11--------11---11------------|
E|-------------------------------------------------------------|
(on the intro, the second time you strum the G#m chord here ^^^)

[Pre-Chorus]
Eb          Bb
Are we just lost in time? 
Cm               Bb            G#
I wonder if your love's the same 
G#m
Cause I'm not over you 

[Chorus]
Eb
Baby, don't talk to me 
G#                G#m
I'm trying to let go 
Eb                Gmaj7           G#
Not loving you is harder than you know
G#m 
Cause girl you're driving me so crazy 

(right before the interlude, do this transition)
e|------------------------------------|
B|------------------------------------|
G|------------------------------------|
D|-6-6-6-6-6-6-6-6-6-6-6-6-6-6-6-6-6--|
A|-6-6-6-6-6-6-6-6-6-6-6-6-6-6-6-6-6--|
E|-4-4-4-4-4-4-4-4-4-4-4-4-4-4-4-4-4--|

[Interlude]
(this im not so sure about, cause i can barely hear it, 
but this is what i got) oh, and these are power chords

Eb                
So I'll make the call 
B
And I'll leave today 
Bb
I'm gonna miss you cause I love you baby 
Eb
And I'll make the call 
B
I'm leaving today 
Bb
And leaving always drives me crazy


************************************

| /  Slide up

************************************
Suggest correction
comments
print report bad tab
11 comments total. Showing first comments.
0 reply
itsjusttherobot 82 Oct 30, 2008 10:55 PM

is this tuned down a full step like most etf songs?

0 reply
middaysilence 226 Nov 04, 2008 08:40 PM

my guitar was in standard when i learned this song, and it didnt ever occur to me until recently that they might actually be playing this tuned down... the intro might be easier that way, played in a different shape, ill work on it and get back to you on that

0 reply
BK-201 111 Jan 27, 2009 05:43 PM

darn, im not good at playing the intro T_T its my weakness
nice tab though

guest
You may want to rate the tab now too:
select rating
Wanna post a correction for this tab? Suggest correction