Oops, an error
Loading. Please wait.

Harder Than You Know tab

version 2
version 2

Whole song

Interactive

35,036 views 15 this week
2 commentsread comments
1 2 3 4 5
x 5
add to favorites
×
Save as Personal and add changes to this tab that will be seen only by you. Learn more ›
×
You can save this tab as Personal to edit and correct it or add notes. All changes will be seen only by you. Learn more »
launch autoscroll
font size
0
reset
how to read this tab
guitar tuner
edit
Autoscroll
slow
fast
+/-
esc
set tempo
stop
Author
-------------------------------------------------------------------------------
                             HARDER THAN YOU KNOW - Escape The Fate
-------------------------------------------------------------------------------



Tabbed by: mariewong





TUNING: STANDARD



Chords:
    Eb    Bb    G#    G#m
e|-----|-----|--4--|--4--|
B|--8--|--3--|--4--|--4--|
G|--8--|--3--|--5--|--4--|
D|--8--|--3--|--6--|--6--|
A|--6--|--1--|--6--|--6--|
E|-----|-----|--4--|--4--|



Intro:
e|------------------1-----3---4---3--6-4-----------3--4---------3------|
B|-6-----8------------0------------------4-5---6--------6-4-6-----4-6--|
G|---7-------8---7------0---0---0----------------5----4-------4--------|
D|-----8-------8---------------------6-------6-------------------------|
A|-6-------6-----------------------------------------------------------|
E|------------------3--------------------------------------------------|

e|------------------1-----3---4---3--6-4-----------3--4~--|
B|-6-----8------------0------------------4-5---6------4~--|
G|---7-------8---7------0---0---0----------------5----4~--|
D|-----8-------8---------------------6-------6------------|
A|-6-------6----------------------------------------------|
E|------------------3-------------------------------------|


Intro (Alternative):
e|-1-----3----------1-----3---4---3--6-4-----------3--4---------3------|
B|---3-------4---3----0------------------4-5---6--------6-4-6-----4-6--|
G|-----3-------3--------0---0---0----------------5----4-------4--------|
D|-1-------1-------------------------6-------6-------------------------|
A|---------------------------------------------------------------------|
E|------------------3--------------------------------------------------|

e|-1-----3----------1-----3---4---3--6-4-----------3--4~--|
B|---3-------4---3----0------------------4-5---6------4~--|
G|-----3-------3--------0---0---0----------------5----4~--|
D|-1-------1-------------------------6-------6------------|
A|--------------------------------------------------------|
E|------------------3-------------------------------------|



Verse:
You said this could only get better
There's no rush, 'cause we have each other 
You said this would last forever
But now I doubt if I was your only lover
e|------------------1-----3---4---3--6-4-----------3--4---------3------|
B|-6-----8----------0-0--------------4---4-5---6------4-6-4-6-----4-6--|
G|-7-7-------8---7--0---0---0---0----5-----------5----4-------4--------|
D|-8---8-------8---------------------6-------6-------------------------|
A|-6-------6-----------------------------------------------------------|  [x2]
E|------------------3--------------------------------------------------|


Verse (Alternative):
e|-1-----3----------1-----3---4---3--6-4-----------3--4---------3------|
B|-3-3-------4---3--0-0--------------4---4-5---6------4-6-4-6-----4-6--|
G|-3---3-------3----0---0---0---0----5-----------5----4-------4--------|
D|-1-------1-------------------------6-------6-------------------------|
A|---------------------------------------------------------------------|  [x2]
E|------------------3--------------------------------------------------|



Pre-chorus:
Are we just lost in time? 
I wonder if your love's the same
'Cause I'm not over you 
e|-------------------------------------------------------------------------|
B|----------4-----------------3-1---1-----------4-3---------------3-1---1--|
G|------5-----5---5-------3-----------------5-------5---------3------------|
D|--------6-----6-------3---3-----3-------5---5-------5-----3---3-----3----|
A|----6---------------1-----------------3-----------------1----------------|
E|--4----------------------------------------------------------------------|

e|------------------------|
B|----------4---------4~--|
G|------5-----5---5---4~--|
D|--------6-----6-----6~--|
A|----6---------------6~--|
E|--4-----------------4~--|



Chorus:
Eb           Bb
Baby, don't talk to me 
      G#          G#m
I'm trying to let go
      Eb          Bb               G# 
Not loving you is harder then you know
       G#m 
'Cause girl your driving me so crazy 



Pre-verse:
e|------------------1-----3---4---3--6-4-----------3--4~--|
B|-6-----8------------0------------------4-5---6------4~--|
G|---7-------8---7------0---0---0----------------5----4~--|
D|-----8-------8---------------------6-------6------------|
A|-6-------6----------------------------------------------|
E|------------------3-------------------------------------|


Pre-verse (Alternative):
e|-1-----3----------1-----3---4---3--6-4-----------3--4~--|
B|---3-------4---3----0------------------4-5---6------4~--|
G|-----3-------3--------0---0---0----------------5----4~--|
D|-1-------1-------------------------6-------6------------|
A|--------------------------------------------------------|
E|------------------3-------------------------------------|



Verse:
How can I miss you if you never would stay? 
If you need time I guess I'll go away 
Inside me now there's only heartache and pain 
So where's the fire? 
You've begun the rain 
e|------------------1-----3---4---3--6-4-----------3--4---------3------|
B|-6-----8----------0-0--------------4---4-5---6------4-6-4-6-----4-6--|
G|-7-7-------8---7--0---0---0---0----5-----------5----4-------4--------|
D|-8---8-------8---------------------6-------6-------------------------|
A|-6-------6-----------------------------------------------------------|  [x2]
E|------------------3--------------------------------------------------|


Verse (Alternative):
e|-1-----3----------1-----3---4---3--6-4-----------3--4---------3------|
B|-3-3-------4---3--0-0--------------4---4-5---6------4-6-4-6-----4-6--|
G|-3---3-------3----0---0---0---0----5-----------5----4-------4--------|
D|-1-------1-------------------------6-------6-------------------------|
A|---------------------------------------------------------------------|  [x2]
E|------------------3--------------------------------------------------|



Pre-chorus:
Are we just lost in time? 
I wonder if your love's the same
'Cause I'm not over you 
e|-------------------------------------------------------------------------|
B|----------4-----------------3-1---1-----------4-3---------------3-1---1--|
G|------5-----5---5-------3-----------------5-------5---------3------------|
D|--------6-----6-------3---3-----3-------5---5-------5-----3---3-----3----|
A|----6---------------1-----------------3-----------------1----------------|
E|--4----------------------------------------------------------------------|

e|------------------------|
B|----------4---------4~--|
G|------5-----5---5---4~--|
D|--------6-----6-----6~--|
A|----6---------------6~--|
E|--4-----------------4~--|



Chorus:
Eb           Bb
Baby, don't talk to me 
      G#          G#m
I'm trying to let go
      Eb          Bb               G# 
Not loving you is harder then you know
G#m 
Girl your driving me so crazy 
Eb                Bb
And if you don't want me then 
    G#               G#m
I guess I'll have to go
     Eb            Bb
Not loving you is harder then you know. 


Yeah
e|---------|
B|---------|
G|---------|
D|-6(x16)--|
A|-6(x16)--|
E|-3(x16)--|



Bridge:
So I'll make the call 
And I'll leave you today 
I'm gonna miss you 'cause I love you baby 
Yeah, I'll make the call 
I'm leaving today 
And leaving always drives me crazy 
Leaving always drives me crazy 
e|------------------------|
B|------------------------|
G|------------------------|
D|-10(x8)--9(x8)--8(x16)--|
A|-10(x8)--9(x8)--8(x16)--|  [x4]
E|--8(x8)--7(x8)--6(x16)--|



Chorus:
Baby, don't talk to me 
I'm trying to let go 
Not loving you is harder than you know 
Yeah
e|------------------1-----3---4---3--6-4-----------3--4---------3------|
B|-6-----8------------0------------------4-5---6--------6-4-6-----4-6--|
G|---7-------8---7------0---0---0----------------5----4-------4--------|
D|-----8-------8---------------------6-------6-------------------------|
A|-6-------6-----------------------------------------------------------|
E|------------------3--------------------------------------------------|

e|------------------1-----3---4---3--6-4-----------3--4~--|
B|-6-----8------------0------------------4-5---6------4~--|
G|---7-------8---7------0---0---0----------------5----4~--|
D|-----8-------8---------------------6-------6------------|
A|-6-------6----------------------------------------------|
E|------------------3-------------------------------------|


Chorus (Alternative):
e|-1-----3----------1-----3---4---3--6-4-----------3--4---------3------|
B|---3-------4---3----0------------------4-5---6--------6-4-6-----4-6--|
G|-----3-------3--------0---0---0----------------5----4-------4--------|
D|-1-------1-------------------------6-------6-------------------------|
A|---------------------------------------------------------------------|
E|------------------3--------------------------------------------------|

e|-1-----3----------1-----3---4---3--6-4-----------3--4~--|
B|---3-------4---3----0------------------4-5---6------4~--|
G|-----3-------3--------0---0---0----------------5----4~--|
D|-1-------1-------------------------6-------6------------|
A|--------------------------------------------------------|
E|------------------3-------------------------------------|



Eb           Bb
Baby, don't talk to me 
      G#          G#m
I'm trying to let go
      Eb          Bb               G# 
Not loving you is harder then you know
        G#m 
'Cause girl your driving me so crazy 
Eb                Bb
And if you don't want me then 
    G#               G#m
I guess I'll have to go
     Eb            Bb              G#
Not loving you is harder then you know. 
G#m 
Girl your driving me so crazy 


Baby, don't talk to me 
I'm trying to let go 
Not loving you is harder than you know 
Girl you're driving me so crazy
e|------------------1-----3---4---3--6-4-----------3--4---------3------|
B|-6-----8------------0------------------4-5---6--------6-4-6-----4-6--|
G|---7-------8---7------0---0---0----------------5----4-------4--------|
D|-----8-------8---------------------6-------6-------------------------|
A|-6-------6-----------------------------------------------------------|
E|------------------3--------------------------------------------------|

e|------------------1-----3---4---3--6-4-----------3--4-4-6-7------|
B|-6-----8------------0------------------4-5---6------4--------8~--|
G|---7-------8---7------0---0---0----------------5----4--------8~--|
D|-----8-------8---------------------6-------6-----------------8~--|
A|-6-------6---------------------------------------------------6~--|
E|------------------3----------------------------------------------|


Alternative:
e|-1-----3----------1-----3---4---3--6-4-----------3--4---------3------|
B|---3-------4---3----0------------------4-5---6--------6-4-6-----4-6--|
G|-----3-------3--------0---0---0----------------5----4-------4--------|
D|-1-------1-------------------------6-------6-------------------------|
A|---------------------------------------------------------------------|
E|------------------3--------------------------------------------------|

e|-1-----3----------1-----3---4---3--6-4-----------3--4-4-6-7------|
B|---3-------4---3----0------------------4-5---6------4--------8~--|
G|-----3-------3--------0---0---0----------------5----4--------8~--|
D|-1-------1-------------------------6-------6-----------------8~--|
A|-------------------------------------------------------------6~--|
E|------------------3----------------------------------------------|





| /  slide up
| \  slide down
| h  hammer-on
| p  pull-off
| ~  vibrato
| +  harmonic
| x  Mute note
===============================================================================

            
            
Suggest correction
Creating personal tab
Creating personal tab
You can edit any tab online and save it as your Personal.

You can edit, replace or remove any tab part or add personal notes – all changes will be seen only by you.

Personal tabs can be accessed anytime from any device, even offline.
Learn more »
comments
print report bad tab
2 comments total.
0 reply
mariewong 1,684 Aug 30, 2009 07:02 AM

e|-------------------3-4-3--6-4---------3-4------3-----|
B|-6----8-------6-----------4--4-5--6-----4-646----46--|
G|-7-7-----8-7--4-4---0-0---5---------5---4-----4------|
D|-8--8-----8---5--5--------6------6-------------------|
A|-6-----6---------------------------------------------|
D|--------------5--------------------------------------|

0 reply
im_right_here95 10 Jun 06, 2010 09:14 AM

is 646 = 6p4h6?

guest
You may want to rate the tab now too:
select rating
Wanna post a correction for this tab? Suggest correction