Oops, an error
Loading. Please wait.
We have an official Issues tab made by UG professional guitarists. Check out the tab »
×
56,723 views 9 this week
22 commentsread comments
1 2 3 4 5
x 15
add to favorites
×
Save as Personal and add changes to this tab that will be seen only by you. Learn more ›
×
You can save this tab as Personal to edit and correct it or add notes. All changes will be seen only by you. Learn more »
launch autoscroll
font size
0
reset
how to read this tab
guitar tuner
backing track
0:00
0:00
edit
Autoscroll
slow
fast
+/-
esc
set tempo
stop
Song - Issues
Band - Escape The Fate
Album - Escape The Fate
Tuning - Drop C

Intro [0:00-0:22]
Guitar 1
|-----------------|
|-----------------|
|-----------------|
|-----------------|
|-----------------|
|-12^~~~~~~~~~~~~~| (Dive bomb)

Guitar 1
|-----------------|--------------|-----------------|--------------|
|-----------------|--------------|-----------------|--------------|
|-----------------|--------------|-----------------|--------------|
|-----------------|-7-----7------|-----------------|-8-7-5--------|
|-----5p0-7p0-8p0-|--8-7-8-8-7\5-|-----5p0-7p0-8p0-|-------8-7-5+~|
|-0-0-------------|--------------|-0-0-------------|--------------|
  * *                              * *

Guitar 2
|-----------------|--------------|-----------------|--------------|
|-----------------|--------------|-----------------|--------------|
|-----------------|--------------|-----------------|--------------|
|-----------------|--------------|-----------------|-8-7-5--------|
|-----------------|--------------|-----5p0-7p0-8p0-|-------8-7-5+~|
|-----------------|--------------|-0-0-------------|--------------|
                                   * *

Guitar 1
|-----------------|--------------|-----------------|-----------------|
|-----------------|--------------|-----------------|-----------------|
|-----------------|--------------|-----------------|-----------------|
|-----------------|-7-----7------|-----------------|-8---5-----------|
|-----5p0-7p0-8p0-|--8-7-8-8-7\5-|-----5p0-7p0-8p0-|-------8-7h8p7\5-|
|-0-0-------------|--------------|-0-0-------------|-----------------|
  * *                              * *

Guitar 2
|-----------------|--------------|-----------------|-----------------|
|-----------------|--------------|-----------------|-----------------|
|-----------------|--------------|-----------------|-----------------|
|-----------------|-7-----7------|-----------------|---7-------------|
|-----5p0-7p0-8p0-|--8-7-8-8-7\5-|-----5p0-7p0-8p0-|-------8-7h8p7\5-|
|-0-0-------------|--------------|-0-0-------------|-----------------|
  * *                              * *

Guitar 1
|-----------------|--------------|-----------------|------------------|
|-----------------|--------------|-----------------|------------------|
|-----------------|--------------|-----------------|------------------|
|-----------------|-7-----7------|-----------------|-8-7-5------------|
|-----5p0-7p0-8p0-|--8-7-8-8-7\5-|-----5p0-7p0-8p0-|-------8-7-5+~~~--|
|-0-0-------------|--------------|-0-0-------------|------------------|
  * *                              * *

Guitar 2
|-----------------|--------------|-----------------|------------------|
|-----------------|--------------|-----------------|------------------|
|-----------------|--------------|-----------------|------------------|
|-----------------|--------------|-----------------|------------------|
|-0-0-------------|-0-0-------3--|-0-0-------------|-0-0----0-3-------|
|-0-0-------------|-0-0-------3--|-0-0-------------|-0-0----0-3-------|
  * *               * *            * *               * *    

Guitar 1
|-----------------|--------------|-----------------|------------------|
|-----------------|--------------|-----------------|------------------|
|-----------------|--------------|-----------------|------------------|
|-----------------|-7-----7------|-----------------|-8-7-5------------|
|-----5p0-7p0-8p0-|--8-7-8-8-7\5-|-----5p0-7p0-8p0-|-------8-7-5+~~~--|
|-0-0-------------|--------------|-0-0-------------|------------------|
  * *                              * *

Guitar 2
|-----------------|--------------|-----------------|------------------|
|-----------------|--------------|-----------------|------------------|
|-----------------|--------------|-----------------|------------------|
|-----------------|--------------|-----------------|------------------|
|-0-0-------------|-0-0-------3--|-0-0-------------|-0-0----0-3-------|
|-0-0-------------|-0-0-------3--|-0-0-------------|-0-0----0-3-------|
  * *               * *            * *               * *

Verse 1 [0:22-0:42]

Guitar 1
|-----------------|----------------|-----------------|-----------------------|
|-----------------|----------------|-----------------|-----------------------|
|-----------------|----------------|-----------------|-----------------------|
|--------7---7----|--------875-----|--------7---7----|--------8-7-5----------|
|--5-7-8--878-87\5|--5-7-8----875~-|--5-7-8--878-87\5|--5-7-8------8-7h8p7\5-|
|00-0-0-0---------|00-0-0-0--------|00-0-0-0---------|00-0-0-0---------------|
 **************    *************    **************    ********

Guitar 2
|-----------------|----------------|-----------------|-----------------------|
|-----------------|----------------|-----------------|-----------------------|
|-----------------|----------------|-----------------|-----------------------|
|-----------------|----------------|-----------------|-----------------------|
|-0-0----0-0----3-|-0-0---0-0--0-3-|-0-0----0-0---3--|-0-0----0-0------0-0-3-|
|-0-0----0-0----3-|-0-0---0-0--0-3-|-0-0----0-0---3--|-0-0----0-0------0-0-3-|
  * *    * *        * *   * *  *     * *    * *        * *    * *      * *

Guitar 1
|---------------------------|-------------------|---------------------------|-------------------|
|---------------------------|-------------------|---------------------------|-------------------|
|---------------------------|-------------------|---------------------------|-------------------|
|---------------------------|-------------------|---------------------------|-------------------|
|---5-7-8--7-8-10---8-10-12-|10h12p10\8-8h10p8\7|--5-7-8---7-8-10---8-10-12-|10h12p10\8-8h10p8\7|
|000-0-0-77-7-7--788-8--8--8|-------------------|00-0-0-077-7-7--788-8--8--8|-------------------|
 ***************************                     ***************************

Guitar 2
|----------------------------|------------------|----------------------------|------------------|
|----------------------------|------------------|----------------------------|------------------|
|----------------------------|------------------|----------------------------|------------------|
|----------------------------|------------------|----------------------------|------------------|
|00------22-------33---------|55--------77------|00------22-------33---------|------------------|
|00------22-------33---------|55--------77------|00------22-------33---------|------------------|
 **      **       **          **        **       **      **       **          

Chorus [0:42-1:02]

Guitar 1
|----------------------------------------------|----------------------------------------------|
|----------------------------------------------|----------------------------------------------|
|-7-7-7-7-7-/-1010101010/-12121212-/-1414-\-10-|-7-7-7-7-7-/-1010101010/-5-5-5-5-5-/-6-6-\-19-|
|-x-x-x-x-x---x-x-x-x-x----x-x-x-x----x-x---x--|-x-x-x-x-x---x-x-x-x-x---x-x-x-x-x---x-x---x--|
|-5-5-5-5-5-/-8-8-8-8-8-/-10101010-/-1212-\-8--|-5-5-5-5-5-/-8-8-8-8-8-/-3-3-3-3-3-/-4-4-\-7--|
|----------------------------------------------|----------------------------------------------|

Guitar 2
|----------------------------------------------|----------------------------------------------|
|----------------------------------------------|----------------------------------------------|
|----------------------------------------------|----------------------------------------------|
|----------------------------------------------|----------------------------------------------|
|-0~-0-0--0-0-7~-7-7-5-7-8~-8-8--8-8-XX-5-XX-3-|-0~-0-0--0-0-7~-7-7-5-7-8~-8-8--8-8-XX-5-XX-3-|
|-0~-0-0--0-0-7~-7-7-5-7-8~-8-8--8-8-XX-5-XX-3-|-0~-0-0--0-0-7~-7-7-5-7-8~-8-8--8-8-XX-5-XX-3-|

Guitar 1
|----------------------------------------------|----------------------------------------------|
|----------------------------------------------|----------------------------------------------|
|-7-7-7-7-7-/-1010101010/-12121212-/-1414-\-10-|-7-7-7-7-7-/-1010101010/-5-5-5-5-5-/-6-6-\-19-|
|-x-x-x-x-x---x-x-x-x-x----x-x-x-x----x-x---x--|-x-x-x-x-x---x-x-x-x-x---x-x-x-x-x---x-x---x--|
|-5-5-5-5-5-/-8-8-8-8-8-/-10101010-/-1212-\-8--|-5-5-5-5-5-/-8-8-8-8-8-/-3-3-3-3-3-/-4-4-\-7--|
|----------------------------------------------|----------------------------------------------|

Guitar 2
|----------------------------------------------|----------------------------------------------|
|----------------------------------------------|----------------------------------------------|
|----------------------------------------------|----------------------------------------------|
|----------------------------------------------|----------------------------------------------|
|-0~-0-0--0-0-7~-7-7-5-7-8~-8-8--8-8-XX-5-XX-3-|-0~-0-0--0-0-7~-7-7-5-7-8~-8-8--8-8-XX-5-XX-3-|
|-0~-0-0--0-0-7~-7-7-5-7-8~-8-8--8-8-XX-5-XX-3-|-0~-0-0--0-0-7~-7-7-5-7-8~-8-8--8-8-XX-5-XX-3-|

Post-Chorus [1:03-1:08]

Guitar 1
|-----------------|--------------|-----------------|------------------|
|-----------------|--------------|-----------------|------------------|
|-----------------|--------------|-----------------|------------------|
|-----------------|-7-----7------|-----------------|-8-7-5------------|
|-----5p0-7p0-8p0-|--8-7-8-8-7\5-|-----5p0-7p0-8p0-|-------8-7-5+~~~--|
|-0-0-------------|--------------|-0-0-------------|------------------|
  * *                              * *

Guitar 2
|-----------------|--------------|-----------------|------------------|
|-----------------|--------------|-----------------|------------------|
|-----------------|--------------|-----------------|------------------|
|-----------------|--------------|-----------------|------------------|
|-0-0-------------|-0-0-------3--|-0-0-------------|-0-0----0-3-------|
|-0-0-------------|-0-0-------3--|-0-0-------------|-0-0----0-3-------|
  * *               * *            * *               * *

Verse 2 [1:08-1:28]

Guitar 1
|-----------------|----------------|-----------------|-----------------------|
|-----------------|----------------|-----------------|-----------------------|
|-----------------|----------------|-----------------|-----------------------|
|--------7---7----|--------875-----|--------7---7----|--------8-7-5----------|
|--5-7-8--878-87\5|--5-7-8----875~-|--5-7-8--878-87\5|--5-7-8------8-7h8p7\5-|
|00-0-0-0---------|00-0-0-0--------|00-0-0-0---------|00-0-0-0---------------|
 **************    *************    **************    ********

Guitar 2
|-----------------|----------------|-----------------|-----------------------|
|-----------------|----------------|-----------------|-----------------------|
|-----------------|----------------|-----------------|-----------------------|
|-----------------|----------------|-----------------|-----------------------|
|-0-0----0-0----3-|-0-0---0-0--0-3-|-0-0----0-0---3--|-0-0----0-0------0-0-3-|
|-0-0----0-0----3-|-0-0---0-0--0-3-|-0-0----0-0---3--|-0-0----0-0------0-0-3-|
  * *    * *        * *   * *  *     * *    * *        * *    * *      * *

Guitar 1
|---------------------------|-------------------|---------------------------|-------------------|
|---------------------------|-------------------|---------------------------|-------------------|
|---------------------------|-------------------|---------------------------|-------------------|
|---------------------------|-------------------|---------------------------|-------------------|
|---5-7-8--7-8-10---8-10-12-|10h12p10\8-8h10p8\7|--5-7-8---7-8-10---8-10-12-|10h12p10\8-8h10p8\7|
|000-0-0-77-7-7--788-8--8--8|-------------------|00-0-0-077-7-7--788-8--8--8|-------------------|
 ***************************                     ***************************

Guitar 2
|----------------------------|------------------|----------------------------|------------------|
|----------------------------|------------------|----------------------------|------------------|
|----------------------------|------------------|----------------------------|------------------|
|----------------------------|------------------|----------------------------|------------------|
|00------22-------33---------|55--------77------|00------22-------33---------|------------------|
|00------22-------33---------|55--------77------|00------22-------33---------|------------------|
 **      **       **          **        **       **      **       **          

Chorus [1:28-1:48]

Guitar 1
|----------------------------------------------|----------------------------------------------|
|----------------------------------------------|----------------------------------------------|
|-7-7-7-7-7-/-1010101010/-12121212-/-1414-\-10-|-7-7-7-7-7-/-1010101010/-5-5-5-5-5-/-6-6-\-19-|
|-x-x-x-x-x---x-x-x-x-x----x-x-x-x----x-x---x--|-x-x-x-x-x---x-x-x-x-x---x-x-x-x-x---x-x---x--|
|-5-5-5-5-5-/-8-8-8-8-8-/-10101010-/-1212-\-8--|-5-5-5-5-5-/-8-8-8-8-8-/-3-3-3-3-3-/-4-4-\-7--|
|----------------------------------------------|----------------------------------------------|

Guitar 2
|----------------------------------------------|----------------------------------------------|
|----------------------------------------------|----------------------------------------------|
|----------------------------------------------|----------------------------------------------|
|----------------------------------------------|----------------------------------------------|
|-0~-0-0--0-0-7~-7-7-5-7-8~-8-8--8-8-XX-5-XX-3-|-0~-0-0--0-0-7~-7-7-5-7-8~-8-8--8-8-XX-5-XX-3-|
|-0~-0-0--0-0-7~-7-7-5-7-8~-8-8--8-8-XX-5-XX-3-|-0~-0-0--0-0-7~-7-7-5-7-8~-8-8--8-8-XX-5-XX-3-|

Guitar 1
|----------------------------------------------|----------------------------------------------|
|----------------------------------------------|----------------------------------------------|
|-7-7-7-7-7-/-1010101010/-12121212-/-1414-\-10-|-7-7-7-7-7-/-1010101010/-5-5-5-5-5-/-6-6-\-19-|
|-x-x-x-x-x---x-x-x-x-x----x-x-x-x----x-x---x--|-x-x-x-x-x---x-x-x-x-x---x-x-x-x-x---x-x---x--|
|-5-5-5-5-5-/-8-8-8-8-8-/-10101010-/-1212-\-8--|-5-5-5-5-5-/-8-8-8-8-8-/-3-3-3-3-3-/-4-4-\-7--|
|----------------------------------------------|----------------------------------------------|

Guitar 2
|----------------------------------------------|----------------------------------------------|
|----------------------------------------------|----------------------------------------------|
|----------------------------------------------|----------------------------------------------|
|----------------------------------------------|----------------------------------------------|
|-0~-0-0--0-0-7~-7-7-5-7-8~-8-8--8-8-XX-5-XX-3-|-0~-0-0--0-0-7~-7-7-5-7-8~-8-8--8-8-XX-5-XX-3-|
|-0~-0-0--0-0-7~-7-7-5-7-8~-8-8--8-8-XX-5-XX-3-|-0~-0-0--0-0-7~-7-7-5-7-8~-8-8--8-8-XX-5-XX-3-|

Breakdown [1:48-1:58]

Guitar 1
|--------------------------------------------|------------------------------------------------|
|--------------------------------------------|------------------------------------------------|
|--------------------------------------------|------------------------------------------------|
|--------------------------------------------|------------------------------------------------|
|--------------------------------------------|------------------------------------------------|
|-12^~~~~~~~~~~~~~~~~~~~~~~~~~~~~~~~~~~~~~~~~|-12^~~~~~~~~~~~~~~~~~~~~~~~~~~~~~~~~~~~~~~~~~~~~|

Guitar 2
|---------------------|----------------------|---------------------|--------------------------|
|---------------------|----------------------|---------------------|--------------------------|
|---------------------|----------------------|---------------------|--------------------------|
|---------------------|----------------------|---------------------|--------------------------|
|-0-0------0-0-----3--|-0-0------0-0----0-3--|-0-0-----0-0------3--|-0-0-------0-0------0-0-3-|
|-0-0------0-0-----3--|-0-0------0-0----0-3--|-0-0-----0-0------3--|-0-0-------0-0------0-0-3-|
  * *      * *          * *      * *    *      * *     * *           * *       * *      * *

Solo [1:58-2:08]

Guitar 1
|-----------15b17r5-12h15p12--------------------------------|----------------17h19h20-20-20b22|
|-3--5--6-------------------15-17t20t20t20t20-18t22t22t22t22|--------17h19h20-----------------|
|-5b77b98b10------------------------------------------------|17h19h20-------------------------|
|-----------------------------------------------------------|---------------------------------|
|-----------------------------------------------------------|---------------------------------|
|-----------------------------------------------------------|---------------------------------|

Guitar 2
|-----------------------------------------------------------|---------------------------------|
|-----------------------------------------------------------|---------------------------------|
|-----------------------------------------------------------|---------------------------------|
|-----------------------------------------------------------|---------------------------------|
|-0000222233335555777-7-0-0-0-0-2-2-2-2-3-3-3-3-5-5-5-5-5---|---------------------------------|
|-0000222233335555777-7-0-0-0-0-2-2-2-2-3-3-3-3-5-5-5-5-5---|---------------------------------|
  ******************* * * * * * * * * * * * * * * * * * *

Outro [1:58-2:42]

Guitar 1
|----------------------------------------------|----------------------------------------------|
|----------------------------------------------|----------------------------------------------|
|-7-7-7-7-7-/-1010101010/-12121212-/-1414-\-10-|-7-7-7-7-7-/-1010101010/-5-5-5-5-5-/-6-6-\-19-|
|-x-x-x-x-x---x-x-x-x-x----x-x-x-x----x-x---x--|-x-x-x-x-x---x-x-x-x-x---x-x-x-x-x---x-x---x--|
|-5-5-5-5-5-/-8-8-8-8-8-/-10101010-/-1212-\-8--|-5-5-5-5-5-/-8-8-8-8-8-/-3-3-3-3-3-/-4-4-\-7--|
|----------------------------------------------|----------------------------------------------|

Guitar 2
|----------------------------------------------|----------------------------------------------|
|----------------------------------------------|----------------------------------------------|
|----------------------------------------------|----------------------------------------------|
|----------------------------------------------|----------------------------------------------|
|-0~-0-0--0-0-7~-7-7-5-7-8~-8-8--8-8-XX-5-XX-3-|-0~-0-0--0-0-7~-7-7-5-7-8~-8-8--8-8-XX-5-XX-3-|
|-0~-0-0--0-0-7~-7-7-5-7-8~-8-8--8-8-XX-5-XX-3-|-0~-0-0--0-0-7~-7-7-5-7-8~-8-8--8-8-XX-5-XX-3-|

Guitar 1
|----------------------------------------------|----------------------------------------------|
|----------------------------------------------|----------------------------------------------|
|-7-7-7-7-7-/-1010101010/-12121212-/-1414-\-10-|-7-7-7-7-7-/-1010101010/-5-5-5-5-5-/-6-6-\-19-|
|-x-x-x-x-x---x-x-x-x-x----x-x-x-x----x-x---x--|-x-x-x-x-x---x-x-x-x-x---x-x-x-x-x---x-x---x--|
|-5-5-5-5-5-/-8-8-8-8-8-/-10101010-/-1212-\-8--|-5-5-5-5-5-/-8-8-8-8-8-/-3-3-3-3-3-/-4-4-\-7--|
|----------------------------------------------|----------------------------------------------|

Guitar 2
|----------------------------------------------|----------------------------------------------|
|----------------------------------------------|----------------------------------------------|
|----------------------------------------------|----------------------------------------------|
|----------------------------------------------|----------------------------------------------|
|-0~-0-0--0-0-7~-7-7-5-7-8~-8-8--8-8-XX-5-XX-3-|-0~-0-0--0-0-7~-7-7-5-7-8~-8-8--8-8-XX-5-XX-3-|
|-0~-0-0--0-0-7~-7-7-5-7-8~-8-8--8-8-XX-5-XX-3-|-0~-0-0--0-0-7~-7-7-5-7-8~-8-8--8-8-XX-5-XX-3-|


Guitar 1
|----------------------------------------------|----------------------------------------------|
|----------------------------------------------|----------------------------------------------|
|-7-7-7-7-7-/-1010101010/-12121212-/-1414-\-10-|-7-7-7-7-7-/-1010101010/-5-5-5-5-5-/-6-6-\-19-|
|-x-x-x-x-x---x-x-x-x-x----x-x-x-x----x-x---x--|-x-x-x-x-x---x-x-x-x-x---x-x-x-x-x---x-x---x--|
|-5-5-5-5-5-/-8-8-8-8-8-/-10101010-/-1212-\-8--|-5-5-5-5-5-/-8-8-8-8-8-/-3-3-3-3-3-/-4-4-\-7--|
|----------------------------------------------|----------------------------------------------|

Guitar 2
|----------------------------------------------|----------------------------------------------|
|----------------------------------------------|----------------------------------------------|
|----------------------------------------------|----------------------------------------------|
|----------------------------------------------|----------------------------------------------|
|-0~-0-0--0-0-7~-7-7-5-7-8~-8-8--8-8-XX-5-XX-3-|-0~-0-0--0-0-7~-7-7-5-7-8~-8-8--8-8-XX-5-XX-3-|
|-0~-0-0--0-0-7~-7-7-5-7-8~-8-8--8-8-XX-5-XX-3-|-0~-0-0--0-0-7~-7-7-5-7-8~-8-8--8-8-XX-5-XX-3-|

Guitar 1
|----------------------------------------------|----------------------------------------------|
|----------------------------------------------|----------------------------------------------|
|-7-7-7-7-7-/-1010101010/-12121212-/-1414-\-10-|-7-7-7-7-7-/-1010101010/-5-5-5-5-5-/-6-6-\-19-|
|-x-x-x-x-x---x-x-x-x-x----x-x-x-x----x-x---x--|-x-x-x-x-x---x-x-x-x-x---x-x-x-x-x---x-x---x--|
|-5-5-5-5-5-/-8-8-8-8-8-/-10101010-/-1212-\-8--|-5-5-5-5-5-/-8-8-8-8-8-/-3-3-3-3-3-/-4-4-\-7--|
|----------------------------------------------|----------------------------------------------|

Guitar 2
|----------------------------------------------|----------------------------------------------|
|----------------------------------------------|----------------------------------------------|
|----------------------------------------------|----------------------------------------------|
|----------------------------------------------|----------------------------------------------|
|-0~-0-0--0-0-7~-7-7-5-7-8~-8-8--8-8-XX-5-XX-3-|-0~-0-0--0-0-7~-7-7-5-7-8~-8-8--8-8-XX-5-XX-3-|
|-0~-0-0--0-0-7~-7-7-5-7-8~-8-8--8-8-XX-5-XX-3-|-0~-0-0--0-0-7~-7-7-5-7-8~-8-8--8-8-XX-5-XX-3-|

Guitar 1 
|----------------------------------------------|
|----------------------------------------------|
|----------------------------------------------|
|----------------------------------------------|
|-0-0------------------------------------------|
|-0-0------------------------------------------|
  * *

Guitar 2
|----------------------------------------------|
|----------------------------------------------|
|----------------------------------------------|
|----------------------------------------------|
|-0-0------------------------------------------|
|-0-0------------------------------------------|
  * *

*LEGEND*
/ - Slide Up
\ - Slide Down
* - Palm Mute
+ - Pinched Harmonic
x - Ghost Note
~ - Held Note or Vibrato
b - Bend
t - Tapping
r - Return (From Bend)
h - Hammer-On
p - Pull-Off
^ - Dive Bomb


DONE! ALL LEARNT BY EAR! :) ENJOY

            
            
Suggest correction
Creating personal tab
Creating personal tab
You can edit any tab online and save it as your Personal.

You can edit, replace or remove any tab part or add personal notes – all changes will be seen only by you.

Personal tabs can be accessed anytime from any device, even offline.
Learn more »
comments
print report bad tab
22 comments total. Showing first comments.
0 reply
AChrisTheOne 10 Oct 04, 2010 07:37 AM

Thx dude. Exelent Work

-2 reply
Luminate 40 Oct 06, 2010 10:15 AM

dude, in that case, you have a bad ear :P
because it's played in Bstandard / Drop B, and the lowest powerchords are B5's, not C5's :O

0 reply
yertle_ 56 Oct 09, 2010 02:08 AM

Serious? I just presumed that this song was in Drop C as Escape The Fate's guitar is generally in Drop C. And this is the first song ive ever learnt by ear/tabbed. :L So yeah xD

guest
You may want to rate the tab now too:
select rating
Wanna post a correction for this tab? Suggest correction