Oops, an error
Loading. Please wait.

Issues tab

version 2
version 2
28,690 views 18 this week
11 commentsread comments
1 2 3 4 5
x 16
add to favorites
×
Save as Personal and add changes to this tab that will be seen only by you. Learn more ›
×
You can save this tab as Personal to edit and correct it or add notes. All changes will be seen only by you. Learn more »
launch autoscroll
font size
0
reset
how to read this tab
guitar tuner
backing track
0:00
0:00
edit
Autoscroll
slow
fast
+/-
esc
set tempo
stop
Author
well then. this is how i play escape the fate's "issues" probably not perfect but damn 
close ;D only my second tab lol so go easy on me :x add me on facebook and talk to me if 
have questions. my email is Danchipolovsky@aol.com

/=slide
p=pulloff
*=pinch harmonic
.=palm mute

INTRO
guitar 1 only

D|------------------------------------------------------------------|
A|------------------------------------------------------------------|
F|------------------------------------------------------------------|x2
C|------------------7-------7---------------------------------------|
G|---5/7p0-8p0-10p0---8-7-8---8-7-5----5/7p0-8p0-10p0-12-10-8-10-8-7|
C|-0---------------------------------0------------------------------|
   .                                 .

intro still

guitar 1
D|------------------------------------------------------------------|
A|------------------------------------------------------------------|
F|------------------------------------------------------------------|x2
C|------------------7-------7---------------------------------------|
G|---5/7p0-8p0-10p0---8-7-8---8-7-5----5/7p0-8p0-10p0-12-10-8-10-8-7|
C|-0---------------------------------0------------------------------|
   .                                 .
guitar 2

D|---------------------------|
A|---------------------------|
F|---------------------------|
C|-00---00---3~00----00-00-7~|x2
G|-00---00---3~00----00-00-7~|
C|-00---00---3~00----00-00-7~|
   ..   ..     ..    .. ..

VERSE
guitar 2 stays the same. just plays it another 2 times. guitar one changes a little. 
this whole riff, guitar one is palm muted. ignore the two dots i was tooo lazy to delete

guitar 1
D|--------------------------------------------------------------------|
A|--------------------------------------------------------------------|
F|--------------------------------------------------------------------|x2
C|--------------------7-------7---------------------------------------|
G|-----7-0-8-0-10-0-----8-7-8---8-7-5------7-0-8-0-10-0-12-10-8-10-8-7|
C|-0-0---------------------------------0-0----------------------------|
 . .
guitar 2

D|---------------------------|
A|---------------------------|
F|---------------------------|
C|-00---00---3~00----00-00-7~|x2
G|-00---00---3~00----00-00-7~|
C|-00---00---3~00----00-00-7~|
   ..   ..     ..    .. ..

guitar 1
all palm muted
D|-------------------------------------------------------------------|
A|-------------------------------------------------------------------|
F|-------------------------------------------------------------------|x2
C|--------------------------------------------------8-7------7-------|
A|-5-5-7-5-8-5-10-5-7-7-8-7-10-7-8-8-10-8-12-8-13-8-----10-8---10-8-7|
C|-------------------------------------------------------------------|

guitar 2
D|--------------------------|---------|
A|--------------------------|---------|
F|--------------------------|---------|
C|-00----22----33---555--555|-00--22--|
A|-00----22----33---555--555|-00--22--|
C|-00----22----33---555--555|-00--22--|
   ..    ..    ..   ...  ...

chorus
guitars 1+2

D|-----------------------------|
A|-----------------------------|
F|-----------------------------|
C|-0----7----5h7--8---7---3----|x4
A|-0x8--7x6--5h7--8x8-7x4-3x4--|
C|-0----7----5h7--8---7---3----|

now the intro riff

guitar 1
D|------------------------------------------------------------------|
A|------------------------------------------------------------------|
F|------------------------------------------------------------------|x2
C|------------------7-------7---------------------------------------|
G|---5/7p0-8p0-10p0---8-7-8---8-7/5----5/7p0-8p0-10p0-12-10-8-10-8-7|
C|-0---------------------------------0------------------------------|
   .                                 .
guitar 2

D|---------------------------|
A|---------------------------|
F|---------------------------|
C|-00---00---3~00----00-00-7~|x2
G|-00---00---3~00----00-00-7~|
C|-00---00---3~00----00-00-7~|
   ..   ..     ..    .. ..

verse AGAIN

guitar 1
D|--------------------------------------------------------------------|
A|--------------------------------------------------------------------|
F|--------------------------------------------------------------------|x2
C|--------------------7-------7---------------------------------------|
G|-----7-0-8-0-10-0-----8-7-8---8-7-5------7-0-8-0-10-0-12-10-8-10-8-7|
C|-0-0---------------------------------0-0----------------------------|

guitar 2

D|---------------------------|
A|---------------------------|
F|---------------------------|
C|-00---00---3~00----00-00-7~|x2
G|-00---00---3~00----00-00-7~|
C|-00---00---3~00----00-00-7~|
   ..   ..     ..    .. ..

guitar 1
all palm muted
D|-------------------------------------------------------------------|
A|-------------------------------------------------------------------|
F|-------------------------------------------------------------------|x2
C|--------------------------------------------------8-7------7-------|
A|-5-5-7-5-8-5-10-5-7-7-8-7-10-7-8-8-10-8-12-8-13-8-----10-8---10-8-7|
C|-------------------------------------------------------------------|

guitar 2
D|---------------------------|----------|
A|---------------------------|----------|
F|---------------------------|----------|
C|-00----22---33---555---555-|-00----22-|
A|-00----22---33---555---555-|-00----22-|
C|-00----22---33---555---555-|-00----22-|
   ..    ..   ..   ...   ...   ..

chorus
guitars 1+2

D|-----------------------------|
A|-----------------------------|
F|-----------------------------|
C|-0----7----5h7--8---7---3----|x4
A|-0x8--7x6--5h7--8x8-7x4-3x4--|
C|-0----7----5h7--8---7---3----|

SOLO TIME :D

guitar 1

D|-------------------------|
A|-------------------------|
F|-------------------------|
C|-0~~~~~-------0~~~~~~~~~-|
A|-0~~~~~-------0~~~~~~~~~-|
C|-0~~~~~-------0~~~~~~~~~-|

use your whammy if you got it here for guitar 1

D|---------------------------|
A|---------------------------|
F|---------------------------|
C|-00---00---3~00----00-00-7~|x2
G|-00---00---3~00----00-00-7~|
C|-00---00---3~00----00-00-7~|
   ..   ..     ..    .. ..

guitar 1

D|-----------------------17--15---------------------------------------|
A|-3~~~~~5~~~~~~6~~~~~~---------18-17-13-15~~~~-T20p15-x8---T22p16-x8-|
F|-5b7~~~7b9~~~~8b10~~~-----------------------------------------------|
C|--------------------------------------------------------------------|
G|--------------------------------------------------------------------|
C|--------------------------------------------------------------------|

  |----------17-18-20-20-20-20b22~~~~~~~~~~--|
  |-17-18-20---------------------------------|
  |------------------------------------------|
  |------------------------------------------|
  |------------------------------------------|
  |------------------------------------------|

guitar 2

all palm muted
D|----------------------------------|
A|----------------------------------|
F|----------------------------------|
C|----------------------------------|
G|----------------------------------|
C|0x8---2x8---3x8---5x8---0x8---2x8-|

repeat the chorus. you should get it :)
Suggest correction
Creating personal tab
Creating personal tab
You can edit any tab online and save it as your Personal.

You can edit, replace or remove any tab part or add personal notes – all changes will be seen only by you.

Personal tabs can be accessed anytime from any device, even offline.
Learn more »
comments
print report bad tab
11 comments total. Showing first comments.
0 reply
CarvinDC127 98 Jan 06, 2011 08:56 PM

Nice tab dude 5 stars. But idk that tapping part on the solo doesn't sound right. The rest of the song sounds good, except that tapping. Also i guess the chorus has some cool part in the background too it could be the intro riff but it's hard to tell.

0 reply
Gibson970 542 Jan 25, 2011 07:56 PM

Nice tab matee :) @Carvin the tapping is using an octaver type thing which is why it doesn't sound right just doing it like that without the effect :) and the background chorus bit goes like;

D-17----15----13-----12---|
A---x9-----x8----x12---x3-|
F-14----12----10-----9----| Play this part 3 times
C-------------------------|
G-------------------------|
C-------------------------|

D-17----15----18------13----12---|
A----x9----x4----x12-----x4---x3-| Play that part once :)
F-14----12----15------10----9----|
C--------------------------------|
G--------------------------------|
C--------------------------------|

Once again great tab my friend keep it up 5*!

0 reply
Gibson970 542 Jan 25, 2011 08:19 PM

Oh wait i just realised what you meant Carvin tapping should be;

D-----------------------|
A-T20p17x8---T22p18x8---|
F-----------------------|
C-----------------------|
G-----------------------|
C-----------------------|

guest
You may want to rate the tab now too:
select rating
Wanna post a correction for this tab? Suggest correction