Oops, an error
Loading. Please wait.

Its Just Me bass

version 1
version 1

Whole song

3,664 views 1 this week
no commentswrite comment
1 2 3 4 5
2 more votes to show rating
add to favorites
×
Save as Personal and add changes to this tab that will be seen only by you. Learn more ›
×
You can save this tab as Personal to edit and correct it or add notes. All changes will be seen only by you. Learn more »
launch autoscroll
font size
0
reset
guitar tuner
edit
Autoscroll
slow
fast
+/-
esc
set tempo
stop
Escape the Fate
It’s Just Me
Drop C
Tabbed By: Synysterblack

I’m not sure if this tab is at all
 correct but it is fun to play nonetheless. 
And if you listen to the song it makes sense
 most of it. If anyone has any suggestion/corrections,
 I am glad to hear them.

-Intro/Verse- At 0:14
F|-----------------------------------------------------------------------|
C|-----------------------------------------------------------------------|
G|-----45\-45\-45\-45\-24\-24\-24\-24\-45\-45\-45\-45\-24\-24\-24\-24\---|
C|-10\-------------------------------------------------------------------|
  
F|-----------------------------------------------------------------------|
C|-----------------------------------------------------------------------|
G|-----45\-45\-45\-45\-24\-24\-24\-24\-45\-45\-45\-45\-24\-24\-24\-24\---|
C|-10\-------------------------------------------------------------------|

-Pre-Chorus-
F|----------------------|
C|----------------------|
G|---5-3-1---8-7-5-4~---|
C|-5-------3------------|

-Chorus-
F|--------------------------|
C|--7\-7-5------------------|
G|--------8-8-7-8-0-8-7-5---|
C|-0-------8----------------|

F|----------------------------|
C|----7\-7-5------------------|
G|----------8-8-7-8-0-8-7-8---|
C|-(0)-------8----------------|

F|--------------------------|
C|----7\-7-5----------------|
G|----------8-8-7-8-0-8-7---|
C|-(0)-------8--------------|

F|----------------------|
C|----------------------|
G|-8-8-8-8-7-7-7-0-5~---|
C|----------------------|

-Break-
F|-----------|
C|-----------|
G|-----------|
C|-----------|

-Verse 2-
F|---------------------------------------------------------------------------------------|
C|---------------------------------------------------------------------------------------|
G|---------------------------------------------------------------------------------------|
C|-12\-012\-012\-012\-012\-011\-011\-011\-011\-012\-012\-012\-012\-011\-011\-011\-011\---|
       Twelve’s and elevens

-Pre-Chorus 2-
F|----------------------|
C|----------------------|
G|---5-3-1---8-7-5-4~---|
C|-5-------3------------|

-Chorus-
F|--------------------------|
C|--7\-7-5------------------|
G|--------8-8-7-8-0-8-7-5---|
C|-0-------8----------------|

F|----------------------------|
C|----7\-7-5------------------|
G|----------8-8-7-8-0-8-7-8---|
C|-(0)-------8----------------|

F|--------------------------|
C|----7\-7-5----------------|
G|----------8-8-7-8-0-8-7---|
C|-(0)-------8--------------|

F|----------------------|
C|----------------------|
G|-8-8-8-8-7-7-7-0-5~---|
C|----------------------|

-Bridge-
F|-----------------------------------------------------|
C|-----------------------------------------------------|
G|-5-5-5~--1-1-1-1~--5-5-5-5~--1-1-1-1~/17-17-17-17~---|
C|-----------------------------------------------------|

-Break 2- with trumpets
F|--------------------|
C|--------------------|
G|--------------------|
C|--------------------|

-Bridge 2-
F|---------------------------|
C|---------------------------|
G|-5-5-535~-------5-5-535~---|
C|---------------------------|

-Verse 3-
F|---------------------------------------------------------------|
C|---------------------------------------------------------------|
G|-45\-45\-45\-45\-24\-24\-24\-24\-45\-45\-45\-45\-24\-24\-24~---|
C|---------------------------------------------------------------|

-Chorus 3-
F|--------------------------|
C|--7\-7-5------------------|
G|--------8-8-7-8-0-8-7-5---|
C|-0-------8----------------|

F|----------------------------|
C|----7\-7-5------------------|
G|----------8-8-7-8-0-8-7-8---|
C|-(0)-------8----------------|

F|--------------------------|
C|----7\-7-5----------------|
G|----------8-8-7-8-0-8-7---|
C|-(0)-------8--------------|

F|----------------------|
C|----------------------|
G|-8-8-8-8-7-7-7-0-5~---|
C|----------------------|

F|--------------------------|
C|--7\-7-5------------------|
G|--------8-8-7-8-0-8-7-5---|
C|-0-------8----------------|

F|----------------------------|
C|----7\-7-5------------------|
G|----------8-8-7-8-0-8-7-8---|
C|-(0)-------8----------------|

F|--------------------------|
C|----7\-7-5----------------|
G|----------8-8-7-8-0-8-7---|
C|-(0)-------8--------------|

F|----------------------|
C|----------------------|
G|-8-8-8-8-7-7-7-0-5~---|
C|----------------------|

F|-----------------------------------------------------------|
C|-----------------------------------------------------------|
G|-8-8-8-8-7-7-7-0~--8-8-8-8-7-7-7-0~--8-8-8-8-7-7-7-0~-5~---|
C|-----------------------------------------------------------|

-End/Chorus-
F|--------------------------|
C|--7\-7-5------------------|
G|--------8-8-7-8-0-8-7-5---|
C|-0-------8----------------|

F|----------------------------|
C|----7\-7-5------------------|
G|----------8-8-7-8-0-8-7-8---|
C|-(0)-------8----------------|

F|--------------------------|
C|----7\-7-5----------------|
G|----------8-8-7-8-0-8-7---|
C|-(0)-------8--------------|

F|-----------------------|
C|-----------------------|
G|-8-8-8108-7------------|
C|-----------888777555---|

F|----------------------|
C|----7\-7-5------------|
G|----------8-8-7-8-7---|
C|-(0)-------8----------|

F|----------------------|
C|----7\-7-5------------|
G|----------8-8-7-8-7---|
C|-(0)-------8----------|

F|----------------------|
C|----7\-7-5------------|
G|----------8-8-7-8-7---|
C|-(0)-------8----------|

F|--------------------------|
C|--------------------------|
G|-8-8-8108-7777------------|
C|--------------8887770~~---|

            
            
Suggest correction
Creating personal tab
Creating personal tab
You can edit any tab online and save it as your Personal.

You can edit, replace or remove any tab part or add personal notes – all changes will be seen only by you.

Personal tabs can be accessed anytime from any device, even offline.
Learn more »
Give kudos to tab author, rate the tab!
1 2 3 4 5
comments
print report bad tab
guest
You may want to rate the tab now too:
select rating
Wanna post a correction for this tab? Suggest correction