Oops, an error
Loading. Please wait.

Its Just Me Bass Tab

version 2
version 2

Whole song

161 views 1 this week
no commentswrite comment
1 2 3 4 5
please rate
add to favorites
launch autoscroll
font size
0
reset
guitar tuner
Tab Pro tools
  • play this tab
  • loop segment
  • change instrument
  • show fretboard
  • metronome
Autoscroll
slow
fast
+/-
esc
set tempo
stop
Contributor
Tuning
C G C F A D
Verse 0:14 
F|---------|------------------------------------------------------------|
C|---------|o----------------------------------------------------------o|
G|---------|o-5\---4-5\---4-5\---4-5\-----4\---2-4\---2-4\---2-4p2/8---o| x3
C|-12\-----|------------------------------------------------------------|

F|-------------------------------------------------------|
C|-------------------------------------------------------|
G|-5\---4-5\---4-5\---4-5\-----4\---2-4\---2-4\---2-4\---|
C|-------------------------------------------------------|

Pre-Chorus 0:45
F|------------------------------|
C|------------------------------|
G|-------5-1-3-4-8---8-3----4---|
C|-5-7-8-----------7------------|

Chorus 0:52
F|---------------------------------------------------------|
C|-----------------------------------------------8---------|
G|---12\---10--8----7-8--0-7--8-7-5----------------5////17-|
C|-0-------------8--------------------0-7\-0-7-8-----------|

1:00
F|----------------------------------------------------------------|
C|----------------------------------------------------------------|
G|----------------7h8-------------------------------5////17-------|
C|-0-7\-0-7-8-7-8-----8-8-8-8-7-7-7h8-7p5-0-----------------------|

Verse 1:14
F|--------------------------------------------------------|
C|--------------------------------------------------------|
G|---------5\-----5\-----5\-----4\-----4\-----4\-----4\-8-|
C|-12\---0------0------0-------------0------0------0------|

F|-------------------------------------------------------|
C|-------------------------------------------------------|
G|-5\-----5\-----5\-----5\-----4\-----4\-----4\-----4\---|
C|------0------0------0-------------0------0------0------|

Pre-Chorus 1:29
F|------------------------------|
C|------------------------------|
G|-------5-1-3-4-8---8-3----4---|
C|-5-7-8-----------7------------|

Chorus 1:37
F|---------------------------------------------------------|
C|-----------------------------------------------8---------|
G|---12\---10--8----7-8--0-7--8-7-5----------------5////17-|
C|-0-------------8--------------------0-7\-0-7-8-----------|

1:00
F|-------------------------------------|
C|-------------------------------------|
G|----------------7h8------------------|
C|-0-7\-0-7-8-7-8-----8-8-8-8-7-7-7-53-|

Bridge 1:51
F|--------------------------------------------------------|
C|--------------------------------------------------------|
G|--------------1-1-1-1-------------------1-1-1-1------8\-|
C|-0-0-0-0-------------------0-0-0-0----------------------|

Trumpets 2:07
F|-------------------------------------------------------------------------|
C|-------------------------------------------------------------------------|
G|-----------------------5/17-----------------5-3------------------5-3-----|
C|-0-0-0-0----------------------0---------0-0-----0------------0-0-----0---|

Verse 2:35
F|---------------------------------------------------------|
C|---------------------------------------------------------|
G|-5\---4-5\---4-5\---4-5\-----4\---2-4\---2-4\---2-4p2/8--|
C|---------------------------------------------------------|

F|-------------------------------------------------------|
C|-------------------------------------------------------|
G|-5\---4-5\---4-5\---4-5\-----4\---2-4\---1-13----------|
C|-------------------------------------------------------|

Chorus 2:52
F|---------------------------------------------------------|
C|-----------------------------------------------8---------|
G|---12\---10--8----7-8--0-7--8-7-5----------------5////17-|
C|-0-------------8--------------------0-7\-0-7-8-----------|

3:00
F|-----------------------------------------|
C|-----------------------------------------|
G|----------------7h8----------------------|
C|-0-7\-0-7-8-7-8-----8-8-8-8-777777777553-|

3:07
F|--------------------------------------------|
C|------------------------------7-8-8108------|
G|------------------------12\------------8\/8-|
C|-0-07\-0-7-8-8-7-5--3-0-----0---------------|

3:14
F|----------------------------------------------------------------------|
C|----------------------------------------------------------------------|
G|----------------7h8---------------------------------------------------|
C|-0-7\-0-7-8-7-8-----8-8-8-8-7-7-7-7-8-8-8-8-7-7-7-2-8-8-8-8-7-5-32----|

Outro 3:31
F|--------------------------------------------------------------------|
C|--------------------------------------------------------------------|
G|--------------------------------------------------------------------|
C|-0-------2-3-5-7---0------------r-0-----------/8-8-8-8-777555333222-|

3:50
F|-----------------------------------------------------|
C|-----------------------------------------------------|
G|-----5------------------5----------------------------|
C|-0----------8---7---0----------8--8-10-8-8-7---7-8-7-|

F|-----------------------------------------------------|
C|-----------------------------------------------------|
G|-------5---------------------------------------------|
C|-5-3-2--------8---7---8-8-8-8-7775553332220----------|

Carnival 4:18
F|-----------------------------------|
C|-0---3---6---6---6---6---6---6-8-9-|
G|-----------------------------------|
C|-----------------------------------|

4:29
F|-------------------------------------|
C|-----2---5---5-------5---6---6-------|
G|-4---------------3---------------4---|
C|-------------------------------------|
Tabbed by Dave Vucko
comments
We did not receive enough feedback on this tab! Please rate:
print report bad tab
1 2 3 4 5
I want to post or [tab]
guest
You may want to rate the tab now too:
select rating
Please do not post tabs as comments. Select "correction" instead!