Oops, an error
Loading. Please wait.
We have an official Make Up tab made by UG professional guitarists. Check out the tab »
×
4,687 views 1 this week
1 commentread comment
1 2 3 4 5
2 more votes to show rating
add to favorites
×
Save as Personal and add changes to this tab that will be seen only by you. Learn more ›
×
You can save this tab as Personal to edit and correct it or add notes. All changes will be seen only by you. Learn more »
launch autoscroll
font size
0
reset
how to read this tab
guitar tuner
edit
Autoscroll
slow
fast
+/-
esc
set tempo
stop
Tuning: Drop C - CGCFAd

INTRO
          guitar 1
d|---------------------------------|
A|---------------------------------|
F|---------------------------------|
C|-9999-5555-4/55-0000000000000000-| (x3)
G|-9999-5555-4/55-0000000000000000-|
C|-9999-5555-4/55-0000000000000000-|
         
          guitar 2
d|------------------------------|
A|------------------------------|
F|----------------------7-9-11--|
C|-9999-5555-4/55-00000-x-x-x---| 
G|-9999-5555-4/55-00000-5-7-9---|
C|-9999-5555-4/55-00000---------|

d|------------------------------|
A|------------------------------|
F|----------------------11-9-7--|
C|-9999-5555-4/55-00000-x--x-x--| 
G|-9999-5555-4/55-00000-9--7-5--|
C|-9999-5555-4/55-00000---------|

d|------------------------------|
A|------------------------------|
F|----------------------7-9-11--|
C|-9999-5555-4/55-00000-x-x-x---| 
G|-9999-5555-4/55-00000-5-7-9---|
C|-9999-5555-4/55-00000---------|

         Both
d|---------------------|
A|---------------------|
F|---------------------|
C|-9999-5555-4/55-0~---|
G|-9999-5555-4/55-0~---|
C|-9999-5555-4/55-0~---|

VERSE Both
d|-----------------------------------------|
A|-----------------------------------------|
F|-----------------------------------------|
C|-0-------4-------5--------8------7-------|(x2)
G|-0-(x16)-4-(x16)-5-(x16)--8-(x8)-7-(x8)--|
C|-0-------4-------5--------8------7-------|
pm .        .       .



CHORUS
         guitar 1
d|---------------------------------|
A|---------------------------------|
F|---------------------------------|
C|-9999-5555-4/55-0000000000000000-| (x2)
G|-9999-5555-4/55-0000000000000000-|
C|-9999-5555-4/55-0000000000000000-|

          guitar 2
d|------------------------------|
A|------------------------------|
F|----------------------7-9-11--|
C|-9999-5555-4/55-00000-x-x-x---| 
G|-9999-5555-4/55-00000-5-7-9---|
C|-9999-5555-4/55-00000---------|

         
d|------------------------------|
A|------------------------------|
F|----------------------7-9-11--|
C|-9999-5555-4/55-00000-x-x-x---| 
G|-9999-5555-4/55-00000-5-7-9---|
C|-9999-5555-4/55-00000---------|

           Both
d|---------------------------------|
A|---------------------------------|
F|---------------------------------|
C|-9-9-9-9-5-5-5-5-0-0-0-0-7-7-5/7-|
G|-9-9-9-9-5-5-5-5-0-0-0-0-7-7-5/7-|
C|-9-9-9-9-5-5-5-5-0-0-0-0-7-7-5/7-|

d|-------------------|
A|-------------------|
F|-------------------|
C|-9999-5555-4/5--0~-|
G|-9999-5555-4/5--0~-|
C|-9999-5555-4/5--0~-|

Repeat VERSE
Repeat CHORUS

BRIDGE   guitar 1
d|----------------------------|
A|----------------------------|
F|----------------------------|
C|-9------0------5505~-5-0~7~-|(x2)
G|-9-(x8)-0-(x8)-5505~-5-0~7~-|
C|-9------0------5505~-5-0~7~-|
 
         guitar 2
d|-------------------------------------|
A|----------10-------------------------|
F|--6-7-6-7----7-6-7-(x2)--------------|
C|------------------------5505~-5-0~7~-|(x2)
G|------------------------5505~-5-0~7~-|
C|------------------------5505~-5-0~7~-|


           guitar 2 (this is how i did it, its not right tho)
d|------------------------------------------|
A|--------------------------3-5-7~----------|
F|--------10------7-------------------------|
C|------9-------5---------------------------|
G|----9-------5-----------------------------|
C|--9-------5-------4-55-0------------------|

d|------------------------------------------|
A|--------------------------7-5-3~----------|
F|--------10------7-------------------------|
C|------9-------5---------------------------|
G|----9-------5-----------------------------|
C|--9-------5-------4-55-0------------------|

         
d|------------------------------------------|
A|--------------------------3-5-7~----------|
F|--------10------7-------------------------|
C|------9-------5---------------------------|
G|----9-------5-----------------------------|
C|--9-------5-------4-55-0------------------|


d|----------------------------|
A|----------------------------|
F|--------10------7-----------|
C|------9-------5--------0~----|
G|----9-------5----------0~----|
C|--9-------5-------4-55-0~----|



CHORUS/OUTRO guitar 1
d|---------------------------------|
A|---------------------------------|
F|---------------------------------|
C|-9-9-9-9-5-5-5-5-0-0-0-0-7-7-5/7-|
G|-9-9-9-9-5-5-5-5-0-0-0-0-7-7-5/7-|
C|-9-9-9-9-5-5-5-5-0-0-0-0-7-7-5/7-|

d|---------------------------------|
A|---------------------------------|
F|---------------------------------|
C|-9-9-9-9-5-5-5-5-0-0-0-0-0-0-0-0-|
G|-9-9-9-9-5-5-5-5-0-0-0-0-0-0-0-0-|
C|-9-9-9-9-5-5-5-5-0-0-0-0-0-0-0-0-|

d|---------------------------------|
A|---------------------------------|
F|---------------------------------|
C|-9-9-9-9-5-5-5-5-0-0-0-0-7-7-5/7-|
G|-9-9-9-9-5-5-5-5-0-0-0-0-7-7-5/7-|
C|-9-9-9-9-5-5-5-5-0-0-0-0-7-7-5/7-|

         
d|---------------------|
A|---------------------|
F|---------------------|
C|-9999-5555-4/55-0~---|
G|-9999-5555-4/55-0~---|
C|-9999-5555-4/55-0~---|

        guitar 2
d|----------------------------------------|
A|--6-7-6-7-6~-7-2~----6-7-2~--6-7-9~-11~-| (x2)
F|----------------------------------------|
C|----------------------------------------|
G|----------------------------------------|
C|----------------------------------------|

            
            
Suggest correction
Creating personal tab
Creating personal tab
You can edit any tab online and save it as your Personal.

You can edit, replace or remove any tab part or add personal notes – all changes will be seen only by you.

Personal tabs can be accessed anytime from any device, even offline.
Learn more »
Give kudos to tab author, rate the tab!
1 2 3 4 5
comments
print report bad tab
1 comment total.
-1 reply
deathfromala 5,572 Apr 05, 2012 01:13 AM

this is for drop b. the song is in drop c

guest
Wanna post a correction for this tab? Suggest correction