Oops, an error
Loading. Please wait.

Massacre tab

version 1
version 1

Whole song

Interactive

19,463 views 3 this week
2 commentsread comments
1 2 3 4 5
x 4
add to favorites
×
Save as Personal and add changes to this tab that will be seen only by you. Learn more ›
×
You can save this tab as Personal to edit and correct it or add notes. All changes will be seen only by you. Learn more »
launch autoscroll
font size
0
reset
how to read this tab
guitar tuner
edit
Autoscroll
slow
fast
+/-
esc
set tempo
stop
----------------------------------------------------------------------------
                                   Massacre
                               Escape the Fate
----------------------------------------------------------------------------

Ok, I just wanted to start off by saying that I LOVE the Main Riff. It is so sweet! Not
that, but it goes great with the name of the song. Put that with a great drum beat, and
makes it an enjoyable riff. However, I wish the Chorus could be more powerful. But it is 
a great song to play. Also, if my B string notes are off... PLEASE TELL ME, because
feel like that string on my guitar is off. Enjoy!

Link to my Guitar Cover(s) of song...

Dual Cover (No Visuals) - http://www.youtube.com/watch?v=1F4kmnRGdbY
Regular Cover (Visuals) - http://www.youtube.com/watch?v=4iCty-XyLi4

Username: dkm817 (same on X box live)
Email: guitardrums@rockfan.com

Guitar 1 Rhythmic (A E A D F# B)
Guitar 2 Lead     (A E A D F# B)

Intro 1

Guitar 1
B -----------------------------------------------------------------|
F#-----------------------------------------------------------------|
D -----------------------------------------------------------------|
A -----------------------------------------------------------------|
E -----------------------------------------------------------------|
A -12--10--0---0-------0---10--12--12--10--0---0-------0-0-0---0---|
Pm                                                     . . .   .

Guitar 1
B -----------------------------------------------------------------|
F#-----------------------------------------------------------------|
D -----------------------------------------------------------------|
A -----------------------------------------------------------------|
E -----------------------------------------------------------------|
A -12--10--0---0-------0---10--12--13--13--13--13--13--12--13--10--|

Guitar 1 & 2
B -----------------------------------------------------------------|
F#-----------------------------------------------------------------|
D -----------------------------------------------------------------|
A -----------------------------------------------------------------|
E -----------------------------------------------------------------|
A -12--10--0---0-------0---10--12--12--10--0---0-------0-0-0---0---|
Pm                                                     . . .   .

Guitar 1 & 2
B -----------------------------------------------------------------|
F#-----------------------------------------------------------------|
D -----------------------------------------------------------------|
A -----------------------------------------------------------------|
E -----------------------------------------------------------------|
A -12--10--0---0-------0---10--12--13--13--12--13------13--13------|

Intro 2

Guitar 1 & 2
B -----------------------------------------------------------------|
F#-----------------------------------------------------------------|
D -----------------------------------------------------------------|
A -12--10--0---0-------0---10--12--12--10--0---0-------0-0-0---0---|
E -12--10--0---0-------0---10--12--12--10--0---0-------0-0-0---0---|
A -12--10--0---0-------0---10--12--12--10--0---0-------0-0-0---0---|
Pm                                                     . . .   .

Guitar 1 & 2
B -----------------------------------------------------------------|
F#-----------------------------------------------------------------|
D -----------------------------------------------------------------|
A -12--10--0---0-------0---10--12----------------------------------|
E -12--10--0---0-------0---10--12----------------------------------|
A -12--10--0---0-------0---10--12--13--13--12--13--13--12--13~~~~~-|

Guitar 1 & 2
B -----------------------------------------------------------------|
F#-----------------------------------------------------------------|
D -----------------------------------------------------------------|
A -12--10--0---0-------0---10--12--12--10--0---0-------0-0-0---0---|
E -12--10--0---0-------0---10--12--12--10--0---0-------0-0-0---0---|
A -12--10--0---0-------0---10--12--12--10--0---0-------0-0-0---0---|
Pm                                                     . . .   .

Guitar 1 & 2
B -----------------------------------------------------------------|
F#-----------------------------------------------------------------|
D -----------------------------------------------------------------|
A -12--10--0---0-------0---10--12----------------------------------|
E -12--10--0---0-------0---10--12----------------------------------|
A -12--10--0---0-------0---10--12--13--13--12--13--13--12--13~~~~~-|

Verse 1

Guitar 1 & 2
B -----------------------------------------------------------------|
F#-----------------------------------------------------------------|
D -----------------------------------------------------------------|
A -----------------------------------------------------------------|
E -----------------------------------------------------------------|
A -----------------------------------------------------------------|

Guitar 1 & 2
B -----------------------------------------------------------------|
F#-----------------------------------------------------------------|
D -----------------------------------------------------------------|
A -------------------------------------------------------------0---|
E -------------------------------------------------------------0---|
A -------------------------------------------------------------0---|
Pm                                                             .

Pre Chorus 1

Guitar 1 & 2
B -----------------------------------------------------------------|
F#-----------------------------------------------------------------|
D -----------------------------------------------------------------|
A -----------------------------------------------------------------|
E -----------------------------------------------------------------|
A -12--10--0---0---0---0---10--12--12--10--0---0---0---0---10--12--|

Guitar 1 & 2
B -----------------------------------------------------------------|
F#-----------------------------------------------------------------|
D -----------------------------------------------------------------|
A -----------------------------------------------------------------|
E -----------------------------------------------------------------|
A --12--10--0---0---0---0---10--12--13--13--12--13--13--12--13~~~~-|

Guitar 1 & 2
B -----------------------------------------------------------------|
F#-----------------------------------------------------------------|
D -----------------------------------------------------------------|
A -12--10--0---0-------0---10--12--12--10--0---0-------0-0-0---0---|
E -12--10--0---0-------0---10--12--12--10--0---0-------0-0-0---0---|
A -12--10--0---0-------0---10--12--12--10--0---0-------0-0-0---0---|
Pm                                                     . . .   .

Guitar 1 & 2
B -----------------------------------------------------------------|
F#-----------------------------------------------------------------|
D -----------------------------------------------------------------|
A -12--10--0---0-------0---10--12----------------------------------|
E -12--10--0---0-------0---10--12----------------------------------|
A -12--10--0---0-------0---10--12--13--13--12--13--13--12--13~~~~~-|

Guitar 1 & 2 (Gradually bend more on the 15b)
B -----------------------------------------------------------------|
F#-----------------------------------------------------------------|
D -----------------------------------------------------------------|
A -----------------------------------------------------------------|
E -----------------------------------------------------------------|
A -13--13--12--13--13--12--13~~~~~-15--15--15--15--15b-15b-15b-15b-|

Chorus 1

Guitar 1
B -----------------------------------------------------------------|
F#-----------------------------------------------------------------|
D -----------------------------------------------------------------|
A -0---0---0---0---0---0---0---2---3---3---3---3---5---5---5---5---|
E -0---0---0---0---0---0---0---2---3---3---3---3---5---5---5---5---|
A -0---0---0---0---0---0---0---2---3---3---3---3---5---5---5---5---|

Guitar 2 (the notes on the B string might be a note lower than posted because I believe
guitar is messed up)
B -18--18--18--18--18--18--18--18--19--19--19--19--16--16--16--16--|
F#-x---x---x---x---x---x---x---x---x---x---x---x---x---x---x---x---|
D -14--14--14--14--14--14--14--14--15--15--15--15--12--12--12--12--|
A -----------------------------------------------------------------|
E -----------------------------------------------------------------|
A -----------------------------------------------------------------|

Guitar 1
B -----------------------------------------------------------------|
F#-----------------------------------------------------------------|
D -7---7---7---7---7---7---7---------------------------------------|
A -7---7---7---7---7---7---7---2---3---3---3---3---7---7---7---8---|
E -5---5---5---5---5---5---5---2---3---3---3---3---7---7---7---8---|
A -----------------------------2---3---3---3---3---7---7---7---8---|

Guitar 2
B -18--18--18--18--18--18--18--18--19--19--19--19--16--16--16--16--|
F#-x---x---x---x---x---x---x---x---x---x---x---x---x---x---x---x---|
D -14--14--14--14--14--14--14--14--15--15--15--15--12--12--12--12--|
A -----------------------------------------------------------------|
E -----------------------------------------------------------------|
A -----------------------------------------------------------------|

Guitar 1
B -----------------------------------------------------------------|
F#-----------------------------------------------------------------|
D -----------------------------------------------------------------|
A -0---0---0---0---0---0---0---2---3---3---3---3---5---5---5---5---|
E -0---0---0---0---0---0---0---2---3---3---3---3---5---5---5---5---|
A -0---0---0---0---0---0---0---2---3---3---3---3---5---5---5---5---|

Guitar 2
B -18--18--18--18--18--18--18--18--19--19--19--19--16--16--16--16--|
F#-x---x---x---x---x---x---x---x---x---x---x---x---x---x---x---x---|
D -14--14--14--14--14--14--14--14--15--15--15--15--12--12--12--12--|
A -----------------------------------------------------------------|
E -----------------------------------------------------------------|
A -----------------------------------------------------------------|

Guitar 1
B -----------------------------------------------------------------|
F#-----------------------------------------------------------------|
D -7---7---7---7---7---7---7---------------------------------------|
A -7---7---7---7---7---7---7---2---3---3---3---3---7---7---7---8---|
E -5---5---5---5---5---5---5---2---3---3---3---3---7---7---7---8---|
A -----------------------------2---3---3---3---3---7---7---7---8---|

Guitar 2
B -18--18--18--18--16--18--18--------------------------------------|
F#-x---x---x---x---x---x---x---20~~~~-18~~~~-17~~~~-15~~~~-18~~~~~-|
D -14--14--14--14--12--14--14--x------x------x------x------x-------|
A -----------------------------17~~~~-15~~~~-14~~~~-12~~~~-15~~~~~-|
E -----------------------------------------------------------------|
A -----------------------------------------------------------------|


Verse 2

Guitar 1 & 2
B -----------------------------------------------------------------|
F#-----------------------------------------------------------------|
D -----------------------------------------------------------------|
A -12--10--0---0-------0---10--12--12--10--0---0-------0-0-0---0---|
E -12--10--0---0-------0---10--12--12--10--0---0-------0-0-0---0---|
A -12--10--0---0-------0---10--12--12--10--0---0-------0-0-0---0---|
Pm                                                     . . .   .

Guitar 1 & 2
B -----------------------------------------------------------------|
F#-----------------------------------------------------------------|
D -----------------------------------------------------------------|
A -12--10--0---0-------0---10--12----------------------------------|
E -12--10--0---0-------0---10--12----------------------------------|
A -12--10--0---0-------0---10--12--13--13--12--13--13--12--13~~~~~-|

Guitar 1 & 2
B -----------------------------------------------------------------|
F#-----------------------------------------------------------------|
D -----------------------------------------------------------------|
A -12--10--0---0-------0---10--12--12--10--0---0-------0-0-0---0---|
E -12--10--0---0-------0---10--12--12--10--0---0-------0-0-0---0---|
A -12--10--0---0-------0---10--12--12--10--0---0-------0-0-0---0---|
Pm                                                     . . .   .

Guitar 1
B -----------------------------------------------------------------|
F#-----------------------------------------------------------------|
D -----------------------------------------------------------------|
A -12--10--0---0-------0---10--12----------------------------------|
E -12--10--0---0-------0---10--12----------------------------------|
A -12--10--0---0-------0---10--12--13--13--12--13--13--12--13~~~~~-|

Guitar 2
B -----------------------------------------------------------------|
F#-----------------------------------------------------------------|
D -----------------------------------------------------------------|
A -12--10--0---0-------0---10--12------------------12\~~~~~~~~~~~~-|
E -12--10--0---0-------0---10--12------------------12\~~~~~~~~~~~~-|
A -12--10--0---0-------0---10--12--13--13--12--13--12\~~~~~~~~~~~~-|

Pre Chorus 2

Guitar 1 & 2
B -----------------------------------------------------------------|
F#-----------------------------------------------------------------|
D -----------------------------------------------------------------|
A -----------------------------------------------------------------|
E -----------------------------------------------------------------|
A -12--10--0---0---0---0---10--12--12--10--0---0---0---0---10--12--|

Guitar 1 & 2
B -----------------------------------------------------------------|
F#-----------------------------------------------------------------|
D -----------------------------------------------------------------|
A -----------------------------------------------------------------|
E -----------------------------------------------------------------|
A --12--10--0---0---0---0---10--12--13--13--12--13--13--12--13~~~~-|

Guitar 1 & 2
B -----------------------------------------------------------------|
F#-----------------------------------------------------------------|
D -----------------------------------------------------------------|
A -----------------------------------------------------------------|
E -----------------------------------------------------------------|
A -12--10--0---0---0---0---10--12--12--10--0---0---0---0---10--12--|

Guitar 1 & 2
B -----------------------------------------------------------------|
F#-----------------------------------------------------------------|
D -----------------------------------------------------------------|
A -----------------------------------------------------------------|
E -----------------------------------------------------------------|
A --12--10--0---0---0---0---10--12--13--13--12--13--13--12--13~~~~-|

Guitar 1 & 2
B -----------------------------------------------------------------|
F#-----------------------------------------------------------------|
D -----------------------------------------------------------------|
A -----------------------------------------------------------------|
E -----------------------------------------------------------------|
A -13--13--12--13--13--12--13~~~~~-15--15--15--15--15b-15b-15b-15b-|

Chorus 1

Guitar 1
B -----------------------------------------------------------------|
F#-----------------------------------------------------------------|
D -----------------------------------------------------------------|
A -0---0---0---0---0---0---0---2---3---3---3---3---5---5---5---5---|
E -0---0---0---0---0---0---0---2---3---3---3---3---5---5---5---5---|
A -0---0---0---0---0---0---0---2---3---3---3---3---5---5---5---5---|

Guitar 2
B -18--18--18--18--18--18--18--18--19--19--19--19--16--16--16--16--|
F#-x---x---x---x---x---x---x---x---x---x---x---x---x---x---x---x---|
D -14--14--14--14--14--14--14--14--15--15--15--15--12--12--12--12--|
A -----------------------------------------------------------------|
E -----------------------------------------------------------------|
A -----------------------------------------------------------------|

Guitar 1
B -----------------------------------------------------------------|
F#-----------------------------------------------------------------|
D -7---7---7---7---7---7---7---------------------------------------|
A -7---7---7---7---7---7---7---2---3---3---3---3---7---7---7---8---|
E -5---5---5---5---5---5---5---2---3---3---3---3---7---7---7---8---|
A -----------------------------2---3---3---3---3---7---7---7---8---|

Guitar 2
B -18--18--18--18--18--18--18--18--19--19--19--19--16--16--16--16--|
F#-x---x---x---x---x---x---x---x---x---x---x---x---x---x---x---x---|
D -14--14--14--14--14--14--14--14--15--15--15--15--12--12--12--12--|
A -----------------------------------------------------------------|
E -----------------------------------------------------------------|
A -----------------------------------------------------------------|

Guitar 1
B -----------------------------------------------------------------|
F#-----------------------------------------------------------------|
D -----------------------------------------------------------------|
A -0---0---0---0---0---0---0---2---3---3---3---3---5---5---5---5---|
E -0---0---0---0---0---0---0---2---3---3---3---3---5---5---5---5---|
A -0---0---0---0---0---0---0---2---3---3---3---3---5---5---5---5---|

Guitar 2
B -18--18--18--18--18--18--18--18--19--19--19--19--16--16--16--16--|
F#-x---x---x---x---x---x---x---x---x---x---x---x---x---x---x---x---|
D -14--14--14--14--14--14--14--14--15--15--15--15--12--12--12--12--|
A -----------------------------------------------------------------|
E -----------------------------------------------------------------|
A -----------------------------------------------------------------|

Guitar 1
B -----------------------------------------------------------------|
F#-----------------------------------------------------------------|
D -7---7---7---7---7---7---7---------------------------------------|
A -7---7---7---7---7---7---7---2---3---3---3---3---7---7---7---8---|
E -5---5---5---5---5---5---5---2---3---3---3---3---7---7---7---8---|
A -----------------------------2---3---3---3---3---7---7---7---8---|

Guitar 2
B -18--18--18--18--16--18--18--------------------------------------|
F#-x---x---x---x---x---x---x---20~~~~-18~~~~-17~~~~-15~~~~-18~~~~~-|
D -14--14--14--14--12--14--14--x------x------x------x------x-------|
A -----------------------------17~~~~-15~~~~-14~~~~-12~~~~-15~~~~~-|
E -----------------------------------------------------------------|
A -----------------------------------------------------------------|

Bridge

Guitar 1
B -----------------------------------------------------------------|
F#-----------------------------------------------------------------|
D -----------------------------------------------------------------|
A -----------------------------------------------------------------|
E -----------------------------------------------------------------|
A -12--10--0---0---0---0---10--12--12--10--0---0---0---0---10--12--|

Guitar 2
B -----------------------------------------------------------------|
F#-14b~~~~~~~~~~~~r~~~~~~~~~~~~~~~-14b~~~~~~~~~~~~r~~~~~~~~~~~~~~~-|
D -x-------------------------------x-------------------------------|
A -11b~~~~~~~~~~~~r~~~~~~~~~~~~~~~-11b~~~~~~~~~~~~r~~~~~~~~~~~~~~~-|
E -----------------------------------------------------------------|
A -----------------------------------------------------------------|

Guitar 1
B -----------------------------------------------------------------|
F#-----------------------------------------------------------------|
D -----------------------------------------------------------------|
A -----------------------------------------------------------------|
E -----------------------------------------------------------------|
A --12--10--0---0---0---0---10--12--13--13--12--13--13--12--13~~~~-|

Guitar 2
B ----------------------------------14b~~~~r~~~-14b~~~~r~~~-14b~~~~-|
F#-14b~~~~~~~~~~~~r~~~~~~~~~~~~~~~~-x-----------x-----------x-------|
D -x--------------------------------11b~~~~r~~~-11b~~~~r~~~-11b~~~~-|
A -11b~~~~~~~~~~~~r~~~~~~~~~~~~~~~~---------------------------------|
E ------------------------------------------------------------------|
A ------------------------------------------------------------------|

Guitar 1
B -----------------------------------------------------------------|
F#-----------------------------------------------------------------|
D -----------------------------------------------------------------|
A -----------------------------------------------------------------|
E -----------------------------------------------------------------|
A -12--10--0---0---0---0---10--12--12--10--0---0---0---0---10--12--|

Guitar 2
B -----------------------------------------------------------------|
F#-14b~~~~~~~~~~~~r~~~~~~~~~~~~~~~-14b~~~~~~~~~~~~r~~~~~~~~~~~~~~~-|
D -x-------------------------------x-------------------------------|
A -11b~~~~~~~~~~~~r~~~~~~~~~~~~~~~-11b~~~~~~~~~~~~r~~~~~~~~~~~~~~~-|
E -----------------------------------------------------------------|
A -----------------------------------------------------------------|

Guitar 1
B -----------------------------------------------------------------|
F#-----------------------------------------------------------------|
D -----------------------------------------------------------------|
A -----------------------------------------------------------------|
E -----------------------------------------------------------------|
A --12--10--0---0---0---0---10--12--13--13------13-----------------|

Guitar 2
B ----------------------------------15--15------15-----------------|
F#-14b~~~~~~~~~~~~r~~~~~~~~~~~~~~~~-x---x-------x------------------|
D -x--------------------------------12--12------12-----------------|
A -11b~~~~~~~~~~~~r~~~~~~~~~~~~~~~~--------------------------------|
E -----------------------------------------------------------------|
A -----------------------------------------------------------------|

Breakdown 1

Guitar 1 & 2
B -----------------------------------------------------------------|
F#-----------------------------------------------------------------|
D -----------------------------------------------------------------|
A -0-0-0---------------0-0-0---0---0-0-0---------------------------|
E -0-0-0---------------0-0-0---0---0-0-0---------------------------|
A -0-0-0---------------0-0-0---0---0-0-0---------------------------|
Pm . . .               . . .   .   . . .

Guitar 1 & 2
B -----------------------------------------------------------------|
F#-----------------------------------------------------------------|
D -----------------------------------------------------------------|
A -0-0-0-----------------------------------------------------------|
E -0-0-0-----------------------------------------------------------|
A -0-0-0---------------------------12--10--12--13~~~~~-12--13~~~~~-|

Guitar 1 & 2
B -----------------------------------------------------------------|
F#-----------------------------------------------------------------|
D -----------------------------------------------------------------|
A -0-0-0-----------0-0-0---0-0-0---0-0-0---------------------------|
E -0-0-0-----------0-0-0---0-0-0---0-0-0---------------------------|
A -0-0-0-----------0-0-0---0-0-0---0-0-0---------------------------|
Pm . . .           . . .   . . .   . . .

Guitar 1 & 2
B -----------------------------------------------------------------|
F#-----------------------------------------------------------------|
D -----------------------------------------------------------------|
A -0-0-0-----------------------------------------------------------|
E -0-0-0-----------------------------------------------------------|
A -0-0-0---------------------------12--10--0---13~~~~~-0---13~~~~~-|

Guitar 1 & 2
B -----------------------------------------------------------------|
F#-----------------------------------------------------------------|
D -----------------------------------------------------------------|
A -0-0-0---------------0-0-0---0---0-0-0---------------------------|
E -0-0-0---------------0-0-0---0---0-0-0---------------------------|
A -0-0-0---------------0-0-0---0---0-0-0---------------------------|
Pm . . .               . . .   .   . . .

Guitar 1 & 2
B -----------------------------------------------------------------|
F#-----------------------------------------------------------------|
D -----------------------------------------------------------------|
A -0-0-0-----------------------------------------------------------|
E -0-0-0-----------------------------------------------------------|
A -0-0-0---------------------------12--10--0---13~~~~~-0---13~~~~~-|

Guitar 1 & 2
B -----------------------------------------------------------------|
F#-----------------------------------------------------------------|
D -----------------------------------------------------------------|
A -0-0-0-----------0-0-0---0-0-0---0-0-0---------------------------|
E -0-0-0-----------0-0-0---0-0-0---0-0-0---------------------------|
A -0-0-0-----------0-0-0---0-0-0---0-0-0---------------------------|
Pm . . .           . . .   . . .   . . .

Guitar 1 & 2
B -----------------------------------------------------------------|
F#-----------------------------------------------------------------|
D -----------------------------------------------------------------|
A -0-0-0-----------------------------------------------------------|
E -0-0-0-----------------------------------------------------------|
A -0-0-0---------------------------12--10--0---13~~~~~-0---13~~~~~-|

Guitar 1 & 2
B -----------------------------------------------------------------|
F#-----------------------------------------------------------------|
D -----------------------------------------------------------------|
A -----------------------------------------------------------------|
E -----------------------------------------------------------------|
A -12--10--0---13~~~~~-0---13~~~~~-15--15--15--15--15b-15b-15b-15b-|

Guitar Solo (I put the wah effect at the top of each section. It’s either open or
Closed is higher tone, and Open is lower tone)

Guitar 1
B ------------------------------------------------------------------------|
F#------------------------------------------------------------------------|
D ------------------------------------------------------------------------|
A -0--------0--------0--------0--------0--------0--------0--------2-------|
E -0--------0--------0--------0--------0--------0--------0--------2-------|
A -0--------0--------0--------0--------0--------0--------0--------2-------|

Guitar 2
            ( Open ) (Closed) ( Open )          ( Open ) (Closed) ( Open )
B -------------------------------------------------------------------------|
F#-15p13p10-15p13p10-13p11p10-13p11p10-15p13p10-15p13p10-15p13p10-15p13p10-|
D -------------------------------------------------------------------------|
A -------------------------------------------------------------------------|
E -------------------------------------------------------------------------|
A -------------------------------------------------------------------------|

Guitar 1
B ------------------------------------------------------------------------|
F#------------------------------------------------------------------------|
D ------------------------------------------------------------------------|
A -3--------3--------3--------3--------5--------5--------5--------5-------|
E -3--------3--------3--------3--------5--------5--------5--------5-------|
A -3--------3--------3--------3--------5--------5--------5--------5-------|

Guitar 2
            ( Open ) (    Closed     )
B ------------------------------------------------------------------------|
F#-13p11p10-13p11p10-13p11p10-13p11p10-10b~~~~~~~~~~~~~~~~~~~~~~~~~~~~r~~-|
D ------------------------------------------------------------------------|
A ------------------------------------------------------------------------|
E ------------------------------------------------------------------------|
A ------------------------------------------------------------------------|

Guitar 1
B ------------------------------------------------------------------------|
F#------------------------------------------------------------------------|
D -7--------7--------7--------7--------7--------7--------7----------------|
A -7--------7--------7--------7--------7--------7--------7--------2-------|
E -5--------5--------5--------5--------5--------5--------5--------2-------|
A ----------------------------------------------------------------2-------|

Guitar 2
                                (Open)(        Closed         )
B -------------------------------------17b~~^^^^^^^^^^^^^^^^^^^^^^^^^^r~~-|
F#----------------------------16h18h19------------------------------------|
D -------------------14h15h17---------------------------------------------|
A ----------14h15h17------------------------------------------------------|
E -15h16h17---------------------------------------------------------------|
A ------------------------------------------------------------------------|

Guitar 1
B ------------------------------------------------------------------------|
F#------------------------------------------------------------------------|
D ------------------------------------------------------------------------|
A -3--------3--------3--------3--------7--------7--------7--------8-------|
E -3--------3--------3--------3--------7--------7--------7--------8-------|
A -3--------3--------3--------3--------7--------7--------7--------8-------|

Guitar 2
   (Closed ) ( Open ) (Closed ) (    Open     ) (       Closed       )
B -t19p14p10-----------------------------13b~~~~~~~~~~~~~~~~~~~~~~~~~~r~~-|
F#-----------15p13p11-t18p15p11-13p11p10----------------------------------|
D ------------------------------------------------------------------------|
A ------------------------------------------------------------------------|
E ------------------------------------------------------------------------|
A ------------------------------------------------------------------------|

Guitar 1
B ------------------------------------------------------------------------|
F#------------------------------------------------------------------------|
D ------------------------------------------------------------------------|
A -0--------0--------0--------0--------0--------0--------0--------2-------|
E -0--------0--------0--------0--------0--------0--------0--------2-------|
A -0--------0--------0--------0--------0--------0--------0--------2-------|

Guitar 2                     (Open)(            Closed           )
B -13~~~~~b~~~r~~~~----------15h16h17~~~~~~~~~~~~~~~~~~~~~~~~~~~~-13--14--|
F#------------------13h15p13----------------------------------------------|
D ------------------------------------------------------------------------|
A ------------------------------------------------------------------------|
E ------------------------------------------------------------------------|
A ------------------------------------------------------------------------|

Guitar 1
B ------------------------------------------------------------------------|
F#------------------------------------------------------------------------|
D ------------------------------------------------------------------------|
A -3--------3--------3--------3--------5--------5--------5--------5-------|
E -3--------3--------3--------3--------5--------5--------5--------5-------|
A -3--------3--------3--------3--------5--------5--------5--------5-------|

Guitar 2
B -14--13----------14--13-------------------------------------------------|
F#------------------------------------------------------------------------|
D ---------17--14----------15--14~~~~~~~~~~~~~~~~~~~~~~~~~~~~~~~~~~~~~\~~-|
A ------------------------------------------------------------------------|
E ------------------------------------------------------------------------|
A ------------------------------------------------------------------------|

Guitar 1
B ------------------------------------------------------------------------|
F#------------------------------------------------------------------------|
D -7--------7--------7--------7--------7--------7--------7----------------|
A -7--------7--------7--------7--------7--------7--------7--------2-------|
E -5--------5--------5--------5--------5--------5--------5--------2-------|
A ----------------------------------------------------------------2-------|

Guitar 2
B ----------------------------17h19h21-22b~~~~~~~~~~~~~~~~~~~~~~~~~~~~~~~-|
F#-/14b~~~~r\~~~-/14b~~~~r\~~---------------------------------------------|
D ------------------------------------------------------------------------|
A ------------------------------------------------------------------------|
E ------------------------------------------------------------------------|
A ------------------------------------------------------------------------|

Guitar 1
B -------------------------------------------------------------------------|
F#-------------------------------------------------------------------------|
D -------------------------------------------------------------------------|
A -3--------3--------3--------3--------7---7---7---7~~~~~~~~-7---8~~~~~~~~-|
E -3--------3--------3--------3--------7---7---7---7~~~~~~~~-7---8~~~~~~~~-|
A -3--------3--------3--------3--------7---7---7---7~~~~~~~~-7---8~~~~~~~~-|

Guitar 2                      ( Open )(           Closed            )
B -18h19p18---------14--16----16b~~~~~~~~~~~~~~~~~~~~~~~~~~~~~~~~~~~~~r~~-|
F#----------18--15--------------------------------------------------------|
D ------------------------------------------------------------------------|
A ------------------------------------------------------------------------|
E ------------------------------------------------------------------------|
A ------------------------------------------------------------------------|

Guitar 1
B -------------------------------------------------|
F#-------------------------------------------------|
D -------------------------------------------------|
A -------------------------------------------------|
E -------------------------------------------------|
A -7--7--7--7--7--7--7--7--7--7--7--7--7--7--7--7--|

Guitar 2
B -------------------------------------------------|
F#-17-17-17-17-17-17-17-17-10-10-10-10-10-10-10-10-|
D -------------------------------------------------|
A -------------------------------------------------|
E -------------------------------------------------|
A -------------------------------------------------|

Guitar 1
B -------------------------------------------------|
F#-------------------------------------------------|
D -------------------------------------------------|
A -------------------------------------------------|
E -------------------------------------------------|
A -14-14-14-14-14-14-14-14-15-15-15-15-15-15-15-15-|

Guitar 2
B -------------------------------------------------|
F#-17-17-17-17-17-17-17-17-18-18-18-18-18-18-18-18-|
D -------------------------------------------------|
A -------------------------------------------------|
E -------------------------------------------------|
A -------------------------------------------------|

Chorus 1

Guitar 1
B -----------------------------------------------------------------|
F#-----------------------------------------------------------------|
D -----------------------------------------------------------------|
A -0---0---0---0---0---0---0---2---3---3---3---3---5---5---5---5---|
E -0---0---0---0---0---0---0---2---3---3---3---3---5---5---5---5---|
A -0---0---0---0---0---0---0---2---3---3---3---3---5---5---5---5---|

Guitar 2
B -21b~~~~~~~~~~~~~~~~~~~~~~~~~~~~-19--19--19--19--16--16--16--16--|
F#---------------------------------x---x---x---x---x---x---x---x---|
D ---------------------------------15--15--15--15--12--12--12--12--|
A -----------------------------------------------------------------|
E -----------------------------------------------------------------|
A -----------------------------------------------------------------|

Guitar 1
B -----------------------------------------------------------------|
F#-----------------------------------------------------------------|
D -7---7---7---7---7---7---7---------------------------------------|
A -7---7---7---7---7---7---7---2---3---3---3---3---7---7---7---8---|
E -5---5---5---5---5---5---5---2---3---3---3---3---7---7---7---8---|
A -----------------------------2---3---3---3---3---7---7---7---8---|

Guitar 2
B -18--18--18--18--18--18--18--18--19--19--19--19--16--16--16--16--|
F#-x---x---x---x---x---x---x---x---x---x---x---x---x---x---x---x---|
D -14--14--14--14--14--14--14--14--15--15--15--15--12--12--12--12--|
A -----------------------------------------------------------------|
E -----------------------------------------------------------------|
A -----------------------------------------------------------------|

Guitar 1
B -----------------------------------------------------------------|
F#-----------------------------------------------------------------|
D -----------------------------------------------------------------|
A -0---0---0---0---0---0---0---2---3---3---3---3---5---5---5---5---|
E -0---0---0---0---0---0---0---2---3---3---3---3---5---5---5---5---|
A -0---0---0---0---0---0---0---2---3---3---3---3---5---5---5---5---|

Guitar 2
B -18--18--18--18--18--18--18--18--19--19--19--19--16--16--16--16--|
F#-x---x---x---x---x---x---x---x---x---x---x---x---x---x---x---x---|
D -14--14--14--14--14--14--14--14--15--15--15--15--12--12--12--12--|
A -----------------------------------------------------------------|
E -----------------------------------------------------------------|
A -----------------------------------------------------------------|

Guitar 1
B -----------------------------------------------------------------|
F#-----------------------------------------------------------------|
D -7---7---7---7---7---7---7---------------------------------------|
A -7---7---7---7---7---7---7---2---3---3---3---3---7---7---7---8---|
E -5---5---5---5---5---5---5---2---3---3---3---3---7---7---7---8---|
A -----------------------------2---3---3---3---3---7---7---7---8---|

Guitar 2
B -18--18--18--18--16--18--18--------------------------------------|
F#-x---x---x---x---x---x---x---20~~~~-18~~~~-17~~~~-15~~~~-17~~~~~-|
D -14--14--14--14--12--14--14--x------x------x------x------x-------|
A -----------------------------17~~~~-15~~~~-14~~~~-12~~~~-14~~~~~-|
E -----------------------------------------------------------------|
A -----------------------------------------------------------------|

Chorus 2

Guitar 1
B -----------------------------------------------------------------|
F#-----------------------------------------------------------------|
D -----------------------------------------------------------------|
A -0---0---0---0---0---0---0---2---3---3---3---3---5---5---5---5---|
E -0---0---0---0---0---0---0---2---3---3---3---3---5---5---5---5---|
A -0---0---0---0---0---0---0---2---3---3---3---3---5---5---5---5---|

Guitar 2
B ---------------------------------------
F#-9p7t19p7t21p7t22p7-9p7ht19p7t21p7t22p7
D ---------------------------------------|
A ---------------------------------------|
E ---------------------------------------|
A ---------------------------------------|

Guitar 2 (continued)
B ----------------------------------------|
F#-7p5t17p5t19p5t21p5-7p5t22p5t22p5t21p-5-|
D ----------------------------------------|
A ----------------------------------------|
E ----------------------------------------|
A ----------------------------------------|

Guitar 1
B -----------------------------------------------------------------|
F#-----------------------------------------------------------------|
D -7---7---7---7---7---7---7---------------------------------------|
A -7---7---7---7---7---7---7---2---3---3---3---3---7---7---7---8---|
E -5---5---5---5---5---5---5---2---3---3---3---3---7---7---7---8---|
A -----------------------------2---3---3---3---3---7---7---7---8---|

Guitar 2
B ---------------------------------------
F#-9p7t19p7t21p7t22p7-9p7ht19p7t21p7t22p7
D ---------------------------------------|
A ---------------------------------------|
E ---------------------------------------|
A ---------------------------------------|

Guitar 2 (continued)
B ----------------------------------------|
F#-7p5t17p5t19p5t21p5-7p5t22p5t22p5t21p-5-|
D ----------------------------------------|
A ----------------------------------------|
E ----------------------------------------|
A ----------------------------------------|

Guitar 1
B -----------------------------------------------------------------|
F#-----------------------------------------------------------------|
D -----------------------------------------------------------------|
A -0---0---0---0---0---0---0---2---3---3---3---3---5---5---5---5---|
E -0---0---0---0---0---0---0---2---3---3---3---3---5---5---5---5---|
A -0---0---0---0---0---0---0---2---3---3---3---3---5---5---5---5---|

Guitar 2
B ---------------------------------------
F#-9p7t19p7t21p7t22p7-9p7ht19p7t21p7t22p7
D ---------------------------------------|
A ---------------------------------------|
E ---------------------------------------|
A ---------------------------------------|

Guitar 2 (continued)
B ----------------------------------------|
F#-7p5t17p5t19p5t21p5-7p5t22p5t22p5t21p-5-|
D ----------------------------------------|
A ----------------------------------------|
E ----------------------------------------|
A ----------------------------------------|

Guitar 1
B -----------------------------------------------------------------|
F#-----------------------------------------------------------------|
D -7---7---7---7---7---7---7---------------------------------------|
A -7---7---7---7---7---7---7---2---3---3---3---3---7---7---7---8---|
E -5---5---5---5---5---5---5---2---3---3---3---3---7---7---7---8---|
A -----------------------------2---3---3---3---3---7---7---7---8---|

Guitar 2
B ---------------------------------------
F#-9p7t19p7t21p7t22p7-9p7ht19p7t21p7t22p7
D ---------------------------------------|
A ---------------------------------------|
E ---------------------------------------|
A ---------------------------------------|

Guitar 2 (continued)
B ----------------------------------------|
F#-7p5t17p5t19p5t21p5-7p5t22p5t22p5t21p-5-|
D ----------------------------------------|
A ----------------------------------------|
E ----------------------------------------|
A ----------------------------------------|

Breakdown 2

Guitar 1
B -----------------------------------------------------------------|
F#-----------------------------------------------------------------|
D -----------------------------------------------------------------|
A -0-0-0---------------0-0-0---0---0-0-0---------------------------|
E -0-0-0---------------0-0-0---0---0-0-0---------------------------|
A -0-0-0---------------0-0-0---0---0-0-0---------------------------|
Pm . . .               . . .   .   . . .

Guitar 2
B -----------------------------------------------------------------|
F#-14b~~~~~~~~~~~~r~~~~~~~~~~~~~~~-14b~~~~~~~~~~~~r~~~~~~~~~~~~~~~-|
D -x-------------------------------x-------------------------------|
A -11b~~~~~~~~~~~~r~~~~~~~~~~~~~~~-11b~~~~~~~~~~~~r~~~~~~~~~~~~~~~-|
E -----------------------------------------------------------------|
A -----------------------------------------------------------------|

Guitar 1
B -----------------------------------------------------------------|
F#-----------------------------------------------------------------|
D -----------------------------------------------------------------|
A -0-0-0-----------------------------------------------------------|
E -0-0-0-----------------------------------------------------------|
A -0-0-0---------------------------12--10--12--13~~~~~-12--13~~~~~-|

Guitar 2
B ----------------------------------14b~~~~r~~~-14b~~~~r~~~-14b~~~~-|
F#-14b~~~~~~~~~~~~r~~~~~~~~~~~~~~~~-x-----------x-----------x-------|
D -x--------------------------------11b~~~~r~~~-11b~~~~r~~~-11b~~~~-|
A -11b~~~~~~~~~~~~r~~~~~~~~~~~~~~~~---------------------------------|
E ------------------------------------------------------------------|
A ------------------------------------------------------------------|

Guitar 1
B -----------------------------------------------------------------|
F#-----------------------------------------------------------------|
D -----------------------------------------------------------------|
A -0-0-0-----------0-0-0---0-0-0---0-0-0---------------------------|
E -0-0-0-----------0-0-0---0-0-0---0-0-0---------------------------|
A -0-0-0-----------0-0-0---0-0-0---0-0-0---------------------------|
Pm . . .           . . .   . . .   . . .

Guitar 2
B -----------------------------------------------------------------|
F#-14b~~~~~~~~~~~~r~~~~~~~~~~~~~~~-14b~~~~~~~~~~~~r~~~~~~~~~~~~~~~-|
D -x-------------------------------x-------------------------------|
A -11b~~~~~~~~~~~~r~~~~~~~~~~~~~~~-11b~~~~~~~~~~~~r~~~~~~~~~~~~~~~-|
E -----------------------------------------------------------------|
A -----------------------------------------------------------------|

Guitar 1
B -----------------------------------------------------------------|
F#-----------------------------------------------------------------|
D -----------------------------------------------------------------|
A -0-0-0-----------------------------------------------------------|
E -0-0-0-----------------------------------------------------------|
A -0-0-0---------------------------12--10--0---13~~~~~-0---13~~~~~-|

Guitar 2
B ----------------------------------14b~~~~r~~~-14b~~~~r~~~-14b~~~~-|
F#-14b~~~~~~~~~~~~r~~~~~~~~~~~~~~~~-x-----------x-----------x-------|
D -x--------------------------------11b~~~~r~~~-11b~~~~r~~~-11b~~~~-|
A -11b~~~~~~~~~~~~r~~~~~~~~~~~~~~~~---------------------------------|
E ------------------------------------------------------------------|
A ------------------------------------------------------------------|

Guitar 1
B -----------------------------------------------------------------|
F#-----------------------------------------------------------------|
D -----------------------------------------------------------------|
A -0-0-0---------------0-0-0---0---0-0-0---------------------------|
E -0-0-0---------------0-0-0---0---0-0-0---------------------------|
A -0-0-0---------------0-0-0---0---0-0-0---------------------------|
Pm . . .               . . .   .   . . .

Guitar 2
B -----------------------------------------------------------------|
F#-14b~~~~~~~~~~~~r~~~~~~~~~~~~~~~-14b~~~~~~~~~~~~r~~~~~~~~~~~~~~~-|
D -x-------------------------------x-------------------------------|
A -11b~~~~~~~~~~~~r~~~~~~~~~~~~~~~-11b~~~~~~~~~~~~r~~~~~~~~~~~~~~~-|
E -----------------------------------------------------------------|
A -----------------------------------------------------------------|

Guitar 1
B -----------------------------------------------------------------|
F#-----------------------------------------------------------------|
D -----------------------------------------------------------------|
A -0-0-0-----------------------------------------------------------|
E -0-0-0-----------------------------------------------------------|
A -0-0-0---------------------------12--10--12--13~~~~~-12--13~~~~~-|

Guitar 2
B ----------------------------------14b~~~~r~~~-14b~~~~r~~~-14b~~~~-|
F#-14b~~~~~~~~~~~~r~~~~~~~~~~~~~~~~-x-----------x-----------x-------|
D -x--------------------------------11b~~~~r~~~-11b~~~~r~~~-11b~~~~-|
A -11b~~~~~~~~~~~~r~~~~~~~~~~~~~~~~---------------------------------|
E ------------------------------------------------------------------|
A ------------------------------------------------------------------|

Guitar 1
B -----------------------------------------------------------------|
F#-----------------------------------------------------------------|
D -----------------------------------------------------------------|
A -0-0-0-----------0-0-0---0-0-0---0-0-0---------------------------|
E -0-0-0-----------0-0-0---0-0-0---0-0-0---------------------------|
A -0-0-0-----------0-0-0---0-0-0---0-0-0---------------------------|
Pm . . .           . . .   . . .   . . .

Guitar 2
B -----------------------------------------------------------------|
F#-14b~~~~~~~~~~~~r~~~~~~~~~~~~~~~-14b~~~~~~~~~~~~r~~~~~~~~~~~~~~~-|
D -x-------------------------------x-------------------------------|
A -11b~~~~~~~~~~~~r~~~~~~~~~~~~~~~-11b~~~~~~~~~~~~r~~~~~~~~~~~~~~~-|
E -----------------------------------------------------------------|
A -----------------------------------------------------------------|

Guitar 1
B -----------------------------------------------------------------|
F#-----------------------------------------------------------------|
D -----------------------------------------------------------------|
A -0-0-0-----------------------------------------------------------|
E -0-0-0-----------------------------------------------------------|
A -0-0-0---------------------------12--10--0---13~~~~~-0---13~~~~~-|

Guitar 2
B ----------------------------------14b~~~~r~~~-14b~~~~r~~~-14b~~~~-|
F#-14b~~~~~~~~~~~~r~~~~~~~~~~~~~~~~-x-----------x-----------x-------|
D -x--------------------------------11b~~~~r~~~-11b~~~~r~~~-11b~~~~-|
A -11b~~~~~~~~~~~~r~~~~~~~~~~~~~~~~---------------------------------|
E ------------------------------------------------------------------|
A ------------------------------------------------------------------|

Guitar 1
B -----------------------------------------------------------------|
F#-----------------------------------------------------------------|
D -----------------------------------------------------------------|
A -----------------------------------------------------------------|
E -----------------------------------------------------------------|
A -12--10--0---13~~~~~-0---13~~~~~-15--15--15--15--15b-15b-15b-15b-|

Guitar 2
B -14b~~~~r~~~-14b~~~~r~~~-14b~~~~-15--15--15--15--15--15--15--15--|
F#-x-----------x-----------x-------x---x---x---x---x---x---x---x---|
D -11b~~~~r~~~-11b~~~~r~~~-11b~~~~-12--12--12--12--12--12--12--12--|
A -----------------------------------------------------------------|
E -----------------------------------------------------------------|
A -----------------------------------------------------------------|

Outro

Guitar 1
B -----------------------------------------------------------------|
F#-----------------------------------------------------------------|
D -----------------------------------------------------------------|
A -0~~~~~~~~~~~~~~~~~~~~~~~~~~~~~~~~~~~~~~~~~~~~~~~~~~~~~~~~~~~~~~~
E -0~~~~~~~~~~~~~~~~~~~~~~~~~~~~~~~~~~~~~~~~~~~~~~~~~~~~~~~~~~~~~~~
A -0~~~~~~~~~~~~~~~~~~~~~~~~~~~~~~~~~~~~~~~~~~~~~~~~~~~~~~~~~~~~~~~

Guitar 2
B -----------------------------------------------------------------|
F#-14b~~~~~~~~~~~~r~~~~~~~~~~~~~~~-15^^^^^^^^^^^^^^^^^^^^^^^^^^^^^-|
D -x-------------------------------x-------------------------------|
A -11b~~~~~~~~~~~~r~~~~~~~~~~~~~~~-12^^^^^^^^^^^^^^^^^^^^^^^^^^^^^-|
E -----------------------------------------------------------------|
A -----------------------------------------------------------------|

Guitar 1
B -----------------------------------------------------------------|
F#-----------------------------------------------------------------|
D -----------------------------------------------------------------|
A -~~~~~~~~~~~~~~~~~~~~~~~~~~~~~~~~~~~~~~~~~~~~~~~~~~~~~~~~~~~~~~~~
E -~~~~~~~~~~~~~~~~~~~~~~~~~~~~~~~~~~~~~~~~~~~~~~~~~~~~~~~~~~~~~~~~
A -~~~~~~~~~~~~~~~~~~~~~~~~~~~~~~~~~~~~~~~~~~~~~~~~~~~~~~~~~~~~~~~~

Guitar 2
B -----------------------------------------------------------------|
F#-14b~~~~~~~~~~~~r~~~~~~~~~~~~~~~-15^^^^^^^^^^^^^^^^^^^^^^^^^^^^^-|
D -x-------------------------------x-------------------------------|
A -11b~~~~~~~~~~~~r~~~~~~~~~~~~~~~-12^^^^^^^^^^^^^^^^^^^^^^^^^^^^^-|
E -----------------------------------------------------------------|
A -----------------------------------------------------------------|

Guitar 1
B -----------------------------------------------------------------|
F#-----------------------------------------------------------------|
D -----------------------------------------------------------------|
A -----------------------------------------------------------------|
E -----------------------------------------------------------------|
A -----------------------------------------------------------------|

Guitar 2
B -----------------------------------------------------------------|
F#-14b~~~~~~~~~~~~r~~~~~~~~~~~~~~~-15^^^^^^^^^^^^^^^^^^^^^^^^^^^^^-|
D -x-------------------------------x-------------------------------|
A -11b~~~~~~~~~~~~r~~~~~~~~~~~~~~~-12^^^^^^^^^^^^^^^^^^^^^^^^^^^^^-|
E -----------------------------------------------------------------|
A -----------------------------------------------------------------|

Guitar 1
B -----------------------------------------------------------------|
F#-----------------------------------------------------------------|
D -----------------------------------------------------------------|
A -----------------------------------------------------------------|
E -----------------------------------------------------------------|
A -----------------------------------------------------------------|

Guitar 2
B -----------------------------------------------------------------|
F#-14b~~~~~~~~~~~~r~~~~~~~~~~~~~~~-15^^^^^^^^^^^^^^^^^^^^^^^^^^^^^-|
D -x-------------------------------x-------------------------------|
A -11b~~~~~~~~~~~~r~~~~~~~~~~~~~~~-12^^^^^^^^^^^^^^^^^^^^^^^^^^^^^-|
E -----------------------------------------------------------------|
A -----------------------------------------------------------------|

Guitar 1
B -----------------------------------------------------------------|
F#-----------------------------------------------------------------|
D -----------------------------------------------------------------|
A -----------------------------------------------------------------|
E -----------------------------------------------------------------|
A -----------------------------------------------------------------|

Guitar 2
B -----------------------------------------------------------------|
F#-14b~~~~~~~~~~~~r~~~~~~~~~~~~~~~-15^^^^^^^^^^^^^^^^^^^^^^^^^^^^^-|
D -x-------------------------------x-------------------------------|
A -11b~~~~~~~~~~~~r~~~~~~~~~~~~~~~-12^^^^^^^^^^^^^^^^^^^^^^^^^^^^^-|
E -----------------------------------------------------------------|
A -----------------------------------------------------------------|

Guitar 1
B -----------------------------------------------------------------|
F#-----------------------------------------------------------------|
D -----------------------------------------------------------------|
A -----------------------------------------------------------------|
E -----------------------------------------------------------------|
A -----------------------------------------------------------------|

Guitar 2
B -----------------------------------------------------------------|
F#-14b~~~~~~~~~~~~r~~~~~~~~~~~~~~~-15^^^^^^^^^^^^^^^^^^^^^^^^^^^^^-|
D -x-------------------------------x-------------------------------|
A -11b~~~~~~~~~~~~r~~~~~~~~~~~~~~~-12^^^^^^^^^^^^^^^^^^^^^^^^^^^^^-|
E -----------------------------------------------------------------|
A -----------------------------------------------------------------|

Guitar 1
B -----------------------------------------------------------------|
F#-----------------------------------------------------------------|
D -----------------------------------------------------------------|
A -----------------------------------------------------------------|
E -----------------------------------------------------------------|
A -----------------------------------------------------------------|

Guitar 2
B -----------------------------------------------------------------|
F#-14b~~~~~~~~~~~~r~~~~~~~~~~~~~~~-15^^^^^^^^^^^^^^^^^^^^^^^^^^^^^-|
D -x-------------------------------x-------------------------------|
A -11b~~~~~~~~~~~~r~~~~~~~~~~~~~~~-12^^^^^^^^^^^^^^^^^^^^^^^^^^^^^-|
E -----------------------------------------------------------------|
A -----------------------------------------------------------------|

Guitar 1
B -----------------------------------------------------------------|
F#-----------------------------------------------------------------|
D -----------------------------------------------------------------|
A -----------------------------------------------------------------|
E -----------------------------------------------------------------|
A -----------------------------------------------------------------|

Guitar 2
B -----------------------------------------------------------------|
F#-14b~~~~~~~~~~~~r~~~~~~~~~~~~~~~-15^^^^^^^^^^^^^^^^^^^^^^^^^^^^^-|
D -x-------------------------------x-------------------------------|
A -11b~~~~~~~~~~~~r~~~~~~~~~~~~~~~-12^^^^^^^^^^^^^^^^^^^^^^^^^^^^^-|
E -----------------------------------------------------------------|
A -----------------------------------------------------------------|

Guitar 1
B -----------------------------------------------------------------|
F#-----------------------------------------------------------------|
D -----------------------------------------------------------------|
A -----------------------------------------------------------------|
E -----------------------------------------------------------------|
A -----------------------------------------------------------------|

Guitar 2
B -----------------------------------------------------------------|
F#-14b~~~~~~~~~~~~r~~~~~~~~~~~~~~~-15^^^^^^^^^^^^^^^^^^^^^^^^^^^^^-|
D -x-------------------------------x-------------------------------|
A -11b~~~~~~~~~~~~r~~~~~~~~~~~~~~~-12^^^^^^^^^^^^^^^^^^^^^^^^^^^^^-|
E -----------------------------------------------------------------|
A -----------------------------------------------------------------|

Guitar 1
B -----------------------------------------------------------------|
F#-----------------------------------------------------------------|
D -----------------------------------------------------------------|
A -----------------------------------------------------------------|
E -----------------------------------------------------------------|
A -----------------------------------------------------------------|

Guitar 2
B -----------------------------------------------------------------|
F#-14b~~~~~~~~~~~~r~~~~~~~~~~~~~~~-15^^^^^^^^^^^^^^^^^^^^^^^^^^^^^-|
D -x-------------------------------x-------------------------------|
A -11b~~~~~~~~~~~~r~~~~~~~~~~~~~~~-12^^^^^^^^^^^^^^^^^^^^^^^^^^^^^-|
E -----------------------------------------------------------------|
A -----------------------------------------------------------------|

Guitar 1
B -----------------------------------------------------------------|
F#-----------------------------------------------------------------|
D -----------------------------------------------------------------|
A -----------------------------------------------------------------|
E -----------------------------------------------------------------|
A -----------------------------------------------------------------|

Guitar 2
B -----------------------------------------------------------------|
F#-14b~~~~~~~~~~~~r~~~~~~~~~~~~~~~-15^^^^^^^^^^^^^^^^^^^^^^^^^^^^^-|
D -x-------------------------------x-------------------------------|
A -11b~~~~~~~~~~~~r~~~~~~~~~~~~~~~-12^^^^^^^^^^^^^^^^^^^^^^^^^^^^^-|
E -----------------------------------------------------------------|
A -----------------------------------------------------------------|

Guitar 1
B -----------------------------------------------------------------|
F#-----------------------------------------------------------------|
D -----------------------------------------------------------------|
A -----------------------------------------------------------------|
E -----------------------------------------------------------------|
A -----------------------------------------------------------------|

Guitar 2
B -----------------------------------------------------------------|
F#-14b~~~~~~~~~~~~r~~~~~~~~~~~~~~~-15^^^^^^^^^^^^^^^^^^^^^^^^^^^^^-|
D -x-------------------------------x-------------------------------|
A -11b~~~~~~~~~~~~r~~~~~~~~~~~~~~~-12^^^^^^^^^^^^^^^^^^^^^^^^^^^^^-|
E -----------------------------------------------------------------|
A -----------------------------------------------------------------|

Guitar 1
B -----------------------------------------------------------------|
F#-----------------------------------------------------------------|
D -----------------------------------------------------------------|
A -----------------------------------------------------------------|
E -----------------------------------------------------------------|
A -----------------------------------------------------------------|

Guitar 2
B -----------------------------------------------------------------|
F#-14b~~~~~~~~~~~~r~~~~~~~~~~~~~~~-15^^^^^^^^^^^^^^^^^^^^^^^^^^^^^-|
D -x-------------------------------x-------------------------------|
A -11b~~~~~~~~~~~~r~~~~~~~~~~~~~~~-12^^^^^^^^^^^^^^^^^^^^^^^^^^^^^-|
E -----------------------------------------------------------------|
A -----------------------------------------------------------------|

Guitar 1
B -----------------------------------------------------------------|
F#-----------------------------------------------------------------|
D -----------------------------------------------------------------|
A -----------------------------------------------------------------|
E -----------------------------------------------------------------|
A -----------------------------------------------------------------|

Guitar 2
B -----------------------------------------------------------------|
F#-14b~~~~~~~~~~~~r~~~~~~~~~~~~~~~-15^^^^^^^^^^^^^^^^^^^^^^^^^^^^^-|
D -x-------------------------------x-------------------------------|
A -11b~~~~~~~~~~~~r~~~~~~~~~~~~~~~-12^^^^^^^^^^^^^^^^^^^^^^^^^^^^^-|
E -----------------------------------------------------------------|
A -----------------------------------------------------------------|

Guitar 1
B -----------------------------------------------------------------|
F#-----------------------------------------------------------------|
D -----------------------------------------------------------------|
A -----------------------------------------------------------------|
E -----------------------------------------------------------------|
A -----------------------------------------------------------------|

Guitar 2
B -----------------------------------------------------------------|
F#-14b~~~~~~~~~~~~r~~~~~~~~~~~~~~~-15^^^^^^^^^^^^^^^^^^^^^^^^^^^^^-|
D -x-------------------------------x-------------------------------|
A -11b~~~~~~~~~~~~r~~~~~~~~~~~~~~~-12^^^^^^^^^^^^^^^^^^^^^^^^^^^^^-|
E -----------------------------------------------------------------|
A -----------------------------------------------------------------|

Guitar 1
B -----------------------------------------------------------------|
F#-----------------------------------------------------------------|
D -----------------------------------------------------------------|
A -----------------------------------------------------------------|
E -----------------------------------------------------------------|
A -----------------------------------------------------------------|

Guitar 2
B -----------------------------------------------------------------|
F#-14b~~~~~~~~~~~~r~~~~~~~~~~~~~~~-15~~~~~~~~~~~~~~~~~~~~~~~~~~~~~-|
D -x-------------------------------x-------------------------------|
A -11b~~~~~~~~~~~~r~~~~~~~~~~~~~~~-12~~~~~~~~~~~~~~~~~~~~~~~~~~~~~-|
E -----------------------------------------------------------------|
A -----------------------------------------------------------------|

Tab Legend
h  -  hammer-on
p  -  pull-off
/  -  slide up
\  -  slide down
ps/-  pickslide up
ps\-  pickslide down
~  -  let ring
pm.-  palm mute
b  -  bend
r  -  return from bend
*  -  harmonic
x  -  dead note
^ -  Whammy bar

This is probably one of my best tabs, (in scale of keeping the beat in the tab), and
it was good. Tell me how it was, and email me if you want tabs that have not been made yet,
that need all guitar parts. They might take a while to make because of the time I put 
them. Thanks, oh and one last thing... ROCK OUT!!!!

            
            
Suggest correction
Creating personal tab
Creating personal tab
You can edit any tab online and save it as your Personal.

You can edit, replace or remove any tab part or add personal notes – all changes will be seen only by you.

Personal tabs can be accessed anytime from any device, even offline.
Learn more »
comments
print report bad tab
2 comments total.
-1 reply
reptartdf 50 Sep 22, 2010 07:23 PM

Holy Fuck this is AMAZING!!!!! Can you do Issues? your so damn amazing bro haha

0 reply
Caine7x 16 Jun 23, 2011 08:09 PM

Its actually done on a 7 string

guest
You may want to rate the tab now too:
select rating
Wanna post a correction for this tab? Suggest correction