Oops, an error
Loading. Please wait.
We have an official My Apocalypse tab made by UG professional guitarists. Check out the tab »
×
8,738 views 1 this week
1 commentread comment
1 2 3 4 5
x 4
add to favorites
×
Save as Personal and add changes to this tab that will be seen only by you. Learn more ›
×
You can save this tab as Personal to edit and correct it or add notes. All changes will be seen only by you. Learn more »
launch autoscroll
font size
0
reset
guitar tuner
edit
Autoscroll
slow
fast
+/-
esc
set tempo
stop
Author
Difficulty
This is only my second tab but i think i got it pretty much right. The tuning is D#,G#,D,G
----------------------------------------------------------------------------
No bass until 0:08
  Intro
G |--------------------------------------|
D |--------------------------------------|
A |--------------------------------------|
 E |-44444444-4444444-00000000-777-4-7-4-|

  Intro Continued x2
G |------------------------------------||-------|
D |------------------------------------||-------|
A |------------------------------------||-------|
E |-44444444-4444444-00000000-77777777-||--4----|
   
G |----------------------------|
D |----------------------------|
A |----------------------------| x3
E |---4----0---747---4----0----|

   Corus x2
G |------------------|
D |------------------|
A |------------------|
E |--44--44--00--77--|

  Intro 
G |-------------------------------------|
D |-------------------------------------|
A |-------------------------------------|
E |-44444444-4444444-00000000-777-4-7-4-|

  Intro Continued x3 
G |------------------------------------||-------| 
D |------------------------------------||-------|
A |------------------------------------||-------|
E |-44444444-4444444-00000000-77777777-||---0---| (third time only)

  Bridge 
G |-------------------------------------|
D |-------------------------------------|
A |-------------------------------------|
E |-44444444-4444444-00000000-777-4-7-4-|  

G |------------------------------------|       
D |------------------------------------|    
A |------------------------------------|    
E |-44444444-4444444-00000000-77777777-|     

G |------------------------------|       |------|
D |------------------------------|       |------|
A |------------------------------|   x2  |------| (second time only)
E |-4-4-4-4-4-4-44-0-0-00-7-7-77-|       |---0--|

  Chorus x2
G |-----------------|
D |-----------------|
A |-----------------|
E |--44--44--00--77-|

  Intro
G |---------------------------------------------------|
D |---------------------------------------------------|
A |---------------------------------------------------|
E |-44444444-4444444-00000000-777-4-7-4-|

  Intro Continued x3
G |------------------------------------||-----| 
D |------------------------------------||-----| 
A |------------------------------------||-----| 
E |-44444444-4444444-00000000-77777777-||--4--|(third time only)

   Guitar Solo x3 (played behid the guitar solo)
G |-------------------------------|
D |-------------------------------|
A |-4---------------4-------------|
E |-----4---2---0-------4---2---0-|

 Ending (From 3:21 to the end)
G |----------------------------------------|
D |----------------------------------------|
A |-------------44444444-------------------|
E |-00000000-------------44444444-22222222-|

            
            
Suggest correction
Creating personal tab
Creating personal tab
You can edit any tab online and save it as your Personal.

You can edit, replace or remove any tab part or add personal notes – all changes will be seen only by you.

Personal tabs can be accessed anytime from any device, even offline.
Learn more »
comments
print report bad tab
1 comment total.
0 reply
Dangerous_Demi 10 Mar 17, 2008 01:14 PM

yea its pretty good- but u could also play it

E|-444444444-444444-0000000-777-666

well at least i did

guest
You may want to rate the tab now too:
select rating
Wanna post a correction for this tab? Suggest correction