Oops, an error
Loading. Please wait.
We have an official My Apocalypse tab made by UG professional guitarists. Check out the tab »
×
19,169 views 21 this week
1 commentread comment
1 2 3 4 5
x 10
add to favorites
×
Save as Personal and add changes to this tab that will be seen only by you. Learn more ›
×
You can save this tab as Personal to edit and correct it or add notes. All changes will be seen only by you. Learn more »
launch autoscroll
font size
0
reset
guitar tuner
edit
Autoscroll
slow
fast
+/-
esc
set tempo
stop
-------------------------------------------------------------------------------
	              My Apocalypse - Escape The Fate
-------------------------------------------------------------------------------
 Hmm, yeah the other Tabs weren’t quite right, so I thought I’d take a whack at it. Prob
100% correct seeing as it is my 1st Tab and I‘m playing this on a guitar, but it gets
job done for me! Rate!

Tuning: Drop C

Intro x2 (0:09 - 0:38)
F|---------------------------------------------------------------------------|
C|---------------------------------------------------------------------------|
G|---------------------------------------------------------------------------|
C|-77777777--7777777-33333333--10101010101010--------------------------------|

F|-------------------------------------|-------------------------------------|
C|-------------------------------------|-------------------------------------|
G|-------------------------------------|-------------------------------------|
C|-77777777--7777777-33333333--0000000-|-3~--0~--7-5-3~--0~------------------|

Verse x2 (0:39 - 0:58)
F|---------------------------------------------------------------------------|
C|---------------------------------------------------------------------------|
G|---------------------------------------------------------------------------|
C|-7777777777777777-33333333-1010101010101010--------------------------------|

F|---------------------------------------------------------------------------|
C|---------------------------------------------------------------------------|
G|---------------------------------------------------------------------------|
C|-7777777777777777-33333333-00000000----------------------------------------|

Pre-Chorus x2(0:59 - 1:08)
F|---------------------------------------------------------------------------|
C|---------------------------------------------------------------------------|
G|---------------------------------------------------------------------------|
C|-7-77--7-77--3-33--10-1010--7-77--7-77--3-33--0-00-------------------------|

Chorus x2 (1:09 - 1:30)
F|---------------------------------------------------------------------------|
C|---------------------------------------------------------------------------|
G|---------------------------------------------------------------------------|
C|-77777777--7777777-33333333--10101010101010--------------------------------|

F|-------------------------------------|-------------------------------------|
C|-------------------------------------|-------------------------------------|
G|-------------------------------------|-------------------------------------|
C|-77777777--7777777-33333333--0000000-|-3/----------------------------------|

Verse (1:31 - 1:52)
F|---------------------------------------------------------------------------|
C|---------------------------------------------------------------------------|
G|---------------------------------------------------------------------------|
C|-7777777777777777-33333333-1010101010101010--------------------------------|

F|---------------------------------------------------------------------------|
C|---------------------------------------------------------------------------|
G|---------------------------------------------------------------------------|
C|-7777777777777777-33333333-00000000----------------------------------------|

F|-----------------------------------------------------------------------------|
C|-----------------------------------------------------------------------------|
G|-----------------------------------------------------------------------------|
C|-7-7-7-7-7-7-7773-3-3-333-101010-1010----------------------------------------|

F|---------------------------------------------------------------------------|
C|---------------------------------------------------------------------------|
G|---------------------------------------------------------------------------|
C|-7-7-7-7-7-7-7773-3-3-333-000-00-3/----------------------------------------|

Pre-Chorus x2 (1:53 - 2:02)
F|---------------------------------------------------------------------------|
C|---------------------------------------------------------------------------|
G|---------------------------------------------------------------------------|
C|-7-77--7-77--3-33--10-1010--7-77--7-77--3-33--0-00-------------------------|

Chorus x2 (2:03 - 2:21)
F|---------------------------------------------------------------------------|
C|---------------------------------------------------------------------------|
G|---------------------------------------------------------------------------|
C|-77777777--7777777-33333333--10101010101010--------------------------------|

F|---------------------------------------------------------------------------|
C|---------------------------------------------------------------------------|
G|---------------------------------------------------------------------------|
C|-77777777--7777777-33333333--0000000---------------------------------------|

Bridge x2 (2:22 - 2:41)
F|---------------------------------------------------------------------------|
C|---------------------------------------------------------------------------|
G|---------------------------------------------------------------------------|
C|-3~-------0~-------7~-------5~---------------------------------------------|

Bridge x4 (2:42 - 3:20)
F|---------------------------------------------------------------------------|
C|---------------------------------------------------------------------------|
G|---------------------------------------------------------------------------|
C|-3-3-333333-0-0-000000-7-7-777777-5-5-555555-------------------------------|

Solo x4 (3:21 - 3:59)
F|---------------------------------------------------------------------------|
C|---------------------------------------------------------------------------|
G|-------------------------------------------------------------7---7---------|
C|-3333333333333333-0000000000000000-7777777777777777-55555555--750-750------|

Last Chorus x2 (4:00 - 4:19)
F|---------------------------------------------------------------------------|
C|---------------------------------------------------------------------------|
G|---------------------------------------------------------------------------|
C|-3333333333333333-0000000000000000-7777777777777777-5555555555555555-------|

End On (4:20)
F|-------------------------------------------------------------------------------|
C|-------------------------------------------------------------------------------|
G|-------------------------------------------------------------------------------|
C|-3~----------------------------------------------------------------------------|

And there you have it! Pretty easy. Eh, Jared?


| /  slide up
| \  slide down
| h  hammer-on
| p  pull-off
| ~  vibrato
| +  harmonic
| x  Mute note
===============================================================================

            
            
Suggest correction
Creating personal tab
Creating personal tab
You can edit any tab online and save it as your Personal.

You can edit, replace or remove any tab part or add personal notes – all changes will be seen only by you.

Personal tabs can be accessed anytime from any device, even offline.
Learn more »
comments
print report bad tab
1 comment total.
0 reply
Mr Apparataus 10 Feb 24, 2008 11:40 PM

U SPED CAKE GO LIVE UPSIDE DOWN IN A HOLE!!

anyway good work Leon but i think its gotta be a 1-bad tab
Naa i gave it a 5
seeya tommorow

guest
Wanna post a correction for this tab? Suggest correction