Oops, an error
Loading. Please wait.
We have an official My Apocalypse tab made by UG professional guitarists. Check out the tab »
×
4,134 views 1 this week
3 commentsread comments
1 2 3 4 5
1 last vote to show rating
add to favorites
×
Save as Personal and add changes to this tab that will be seen only by you. Learn more ›
×
You can save this tab as Personal to edit and correct it or add notes. All changes will be seen only by you. Learn more »
launch autoscroll
font size
0
reset
how to read this tab
guitar tuner
edit
Autoscroll
slow
fast
+/-
esc
set tempo
stop
Escape The Fate
My Apocalypse
Submitted by: paramore_fans@yahoo.com

Key: Bb

Tuning: Standard EADGBe

Chords used:
Gm -  355333
Eb -  x68886
Bb -  x13331
F -   133211
F/A - x032xx
Cm -  x35543

Intro:

Silence:
Gm--Eb-Bb x2

Solo:
Gm--Eb-Bb-F/A-Gm--Eb-Bb-Cm x2

       Gm                  Eb                   Bb           F/A
e|-13----------|--------------13----------|-------------|------------|
B|-------11-10-|-------11-10--------11-10-|-11-13-11-10-|-11-13-10---|
G|-------------|-10-----------------------|-------------|------------|
D|----12-------|----12-----------12-------|-------------|------------|
A|-------------|--------------------------|-------------|------------|
E|-------------|--------------------------|-------------|------------|
       x4

       Gm                  Eb                   Bb        Cm
e|-------13-10-|-------------13-10--------|-------------|-10-|
B|-11-10-------|-------11-10-------11-----|-10-11-10-13-|----|
G|-------------|-12-10----------------10--|-------------|----|
D|-------------|--------------------------|-------------|----|
A|-------------|--------------------------|-------------|----|
E|-------------|--------------------------|-------------|----|
       x4

       Gm                  Eb                   Bb           F/A
e|-13----------|--------------13----------|-------------|------------|
B|-------11-10-|-------11-10--------11-10-|-11-13-11-10-|-11-13-10---|
G|-------------|-10-----------------------|-------------|------------|
D|----12-------|----12-----------12-------|-------------|------------|
A|-------------|--------------------------|-------------|------------|
E|-------------|--------------------------|-------------|------------|
       x4

       Gm                  Eb                   Bb           Cm      Gm(Verse 1)
e|-------13-10-|-------------13-10--------|-------------|----------|----|
B|-11-10-------|-------11-10-------11-----|-11-13-11-10-|-11-13-10-|-11-|
G|-------------|-12-10----------------10--|-------------|----------|----|
D|-------------|--------------------------|-------------|----------|----|
A|-------------|--------------------------|-------------|----------|----|
E|-------------|--------------------------|-------------|----------|----|
       x4


Verse 1:

Sing:
Gm
  There’s a place
          Eb
that I’ve found
   Bb     F/A   Gm
As far as I can see
                  Eb
This place lies within
                 Gm
The depths of my dreams
               Eb
In a garden surrounded
   Bb   F/A Gm
By fire and trees
Through the smoke a
      Eb         Cm     Gm
silhouette I can barely see
                      Eb
There’s a man with an axe
 Bb      F/A    Gm
Standing in the rain
                          Eb
Looked me straight in the eyes
             Cm
This is what he had to say


Refrain:

Growl:
Gm           Eb
Never fall asleep

Sing:
    Bb         F/A
You won’t wake up

Growl:
   Gm             Eb
Destroy the guillotine

Sing:
  Cm
Before he does


Chorus 1:

Sing:
Gm
I walk with shadows

Growl:
Eb            Bb
  you have to find
  F/A
a better way

Sing:
Gm
I walk with shadows

Growl:
Eb              Cm
  the questions I
will never say

Sing:
Gm
Hiding from the gallows

Growl:
Eb
  they keep me
Bb       F/A
safe and sound

Sing:
   Gm
So I walk with shadows

Growl:
Eb            Bb
  the ways of burning
F/A       Eb(hold)
down this house


Verse 2:

Speak:
Gm
  End transmission
Eb         Bb    F/A
  The satellites are down
Gm
  I need an earthquake
   Eb         Bb
To shake this pity

Growl:
F/A
OFF THE GROUND
Gm
Just don’t trust these
             Eb
liars at the door

Sing:
            Bb
you have to find
  F/A
a better way

Growl:
Gm
Kill the ones that
                   Eb
have these answers for

Sing:
              Cm
the questions I
           Eb(hold)
will never say


(Repeat Refrain)
(Repeat Chorus 1 except last chord)


Interlude:

Silence: Eb--Cm--Gm--F-- x2

Guitar 2:
   Eb   Cm   Gm    F     Eb   Cm   Gm    F
e|-6--|-6--|-5--|-3h15-|-18-|-6--|-5--|-3h15-|
B|----|----|----|------|----|----|----|------|
G|----|----|----|------|----|----|----|------|
D|----|----|----|------|----|----|----|------| x2
A|----|----|----|------|----|----|----|------|
E|----|----|----|------|----|----|----|------|


Bridge:

Growl:
Eb
  End transmission
Cm                   Gm  F
  The satellites are down
Eb
  I need an earthquake
   Cm
To shake this pity
          Gm   F
All the vibrant


Guitar Solo:

Moderate:
       Eb            Cm            Gm                 F
e|-10----------|-11----------|-------------|-11----------13----------|
B|-------10-11-|-------10-11-|-13----10-11-|-------10-11-------10-11-|
G|----12-------|----12-------|----12-------|----12----------12-------|
D|-------------|-------------|-------------|-------------------------|
A|-------------|-------------|-------------|-------------------------|
E|-------------|-------------|-------------|-------------------------|
       x2             x2

Fast:
       Eb            Cm            Gm                         F
e|-10----------|-11----------|-------------|-11----------11----------13----------13-|
B|-------10-11-|-------10-11-|-13----10-11-|-------10-11-------10-11-------10-11----|
G|----12-------|----12-------|----12-------|----12----------12----------12----------|
D|-------------|-------------|-------------|----------------------------------------|
A|-------------|-------------|-------------|----------------------------------------|
E|-------------|-------------|-------------|----------------------------------------|
       x4             x4           x4

Very Fast:
       Eb            Cm            Gm                 F
e|-10----------|-11----------|-------------|-11----------13----------|
B|-------10-11-|-------10-11-|-13----10-11-|-------10-11-------10-11-|
G|----12-------|----12-------|----12-------|----12----------12-------|
D|-------------|-------------|-------------|-------------------------| x2
A|-------------|-------------|-------------|-------------------------|
E|-------------|-------------|-------------|-------------------------|
       x8             x8           x8                 x8


Growl:
Eb
  Pain The pain
Cm
  Pain The pain
Gm
Pain the pain
F
Pain
[x2]


Chorus 2:

Sing:
Gm
Hiding from the gallows

Growl:
Eb            Bb
  you have to find
  F/A
a better way

Sing:
Gm
I walk in shadows

Growl:
Eb              Cm
  the questions I
will never say

Sing:
Gm
Hiding from the gallows

Growl:
Eb
  they keep me
Bb       F/A
safe and sound

Sing:
Gm
I walk in shadows

Growl:
Eb            Bb
  the ways of burning
F/A       Eb(hold)
down this house


Outro:
e|-6-6-5-5---------|
B|---------6-6-----|
G|-------------7-7-|
D|-----------------| x4
A|-----------------|
E|-----------------|

            
            
Suggest correction
Creating personal tab
Creating personal tab
You can edit any tab online and save it as your Personal.

You can edit, replace or remove any tab part or add personal notes – all changes will be seen only by you.

Personal tabs can be accessed anytime from any device, even offline.
Learn more »
Give kudos to tab author, rate the tab!
1 2 3 4 5
comments
print report bad tab
3 comments total.
+1 reply
lt22 51 Jun 12, 2009 11:09 AM

first off it's all hammer ons and pull offs and tapping. ALL of it. the intro is sposedto be 15p0 13p0 on e first then B second... he doesnt skip two strings to play that note. And the solo is all tapping. and where's the rhythm?

0 reply
lt22 51 Jun 12, 2009 11:11 AM

Oh and they play in drop C, not standard. The outro is the 1 part where there might (i think?) be string skipping and fast stuff and you have it as single notes...

guest
You may want to rate the tab now too:
select rating
Wanna post a correction for this tab? Suggest correction