Oops, an error
Loading. Please wait.
We have an official My Apocalypse tab made by UG professional guitarists. Check out the tab »
×
4,039 views 1 this week
3 commentsread comments
1 2 3 4 5
x 5
add to favorites
×
Save as Personal and add changes to this tab that will be seen only by you. Learn more ›
×
You can save this tab as Personal to edit and correct it or add notes. All changes will be seen only by you. Learn more »
launch autoscroll
font size
0
reset
how to read this tab
guitar tuner
edit
Autoscroll
slow
fast
+/-
esc
set tempo
stop
-----------------------------------------------------------------------------
        BAND NAME:ESCAPE THE FATE         SONG:MY APOCALYPSE
-----------------------------------------------------------------------------
Tabbed By:Pacifica-God-12
E-Mail:zzxcv1999@googlemail.com

GTR I (CGCFAD) Distorted
GTR II (CGCFAD) Distorted
GTR III (CGCFAD) Clean

GTR III INTRO

D|----------------------------------------------|
A|--88-8---8-----------------88-8h10p8----------|
F|--99-9---9---9--9----9-----99-9-----9-9-9-9-9-|
C|--77-7---7---10-10---10----77-7-----1010101010|
G|0-00-0-0-0-8-8--8--8-8---0-00-0-----8-8-8-8-8-|
C|----------------------------------------------|

GTR I INTRO

D|15-0----15-0----15-0----15-0---------------15-0-------------------------|
A|----13-0----13-0----13-0----13-0-10-0-13-0-----13-0-13-15-13-12-12-13-12|
F|------------------------------------------------------------------------|
C|------------------------------------------------------------------------|
G|------------------------------------------------------------------------|
C|------------------------------------------------------------------------|

D|----15-0----15-0----15-0----15-0---------15-0-------------------|
A|13-0----13-0----13-0----13-0----10-0-13-0----13-0-13-15-13-15-17|
F|----------------------------------------------------------------|
C|----------------------------------------------------------------|
G|----------------------------------------------------------------|
C|----------------------------------------------------------------|

D|15-0----15-0----15-0----15-0---------------15-0-------------------------|
A|----13-0----13-0----13-0----13-0-10-0-13-0-----13-0-13-15-13-12-12-13-12|
F|------------------------------------------------------------------------|
C|------------------------------------------------------------------------|
G|------------------------------------------------------------------------|
C|------------------------------------------------------------------------|

D|----15-0----15-0----15-0----15-0---------15-0----------------------------|
A|13-0----13-0----13-0----13-0----10-0-13-0----13-0-13-15-13-12-12-13-12-13|
F|-------------------------------------------------------------------------|
C|-------------------------------------------------------------------------|
G|-------------------------------------------------------------------------|
C|-------------------------------------------------------------------------|



GTR II INTRO

D|-----------------------
A|-----------------------
F|22222-------55555------ X4
C|22222--3-33-55555--5-55
G|00000--3-33-33333--5-55
C|-------3-33--------5-55

GTR III VERSE

D|----------------------------------------------|
A|--88-8---8-----------------88-8h10p8----------|
F|--99-9---9---9--9----9-----99-9-----9-9-9-9-9-|
C|--77-7---7---10-10---10----77-7-----1010101010|
G|0-00-0-0-0-8-8--8--8-8---0-00-0-----8-8-8-8-8-|
C|----------------------------------------------|

GTR I VERSE
D|15--15--15--15--15--15--12------|
A|--13--13--13--13--13--13--13--13|
F|----------------------------14--| X4
C|--------------------------------|
G|--------------------------------|
C|--------------------------------|

GTR II VERSE
D|15--15--15--15--15--15--12--12--|
A|--13--13--13--13--13--13--13--13|
F|--------------------------------| X4
C|--------------------------------|
G|--------------------------------|
C|--------------------------------|

_______________________________________
NOTE:GTR III DOES NOT PLAY ON FROM HERE|
_-_-_-_-_-_-_-_-_-_-_-_-_-_-_-_-_-_-_-_|

GTR I CHORUS
D|-------------------------------|
A|-------------------------------|
F|2-2--2-222--2-2--------5-5--5-5|
C|2-2--2-222--2-23-3--3-35-5--5-5|X2
G|0-0--0-000--0-03-3--3-33-3--3-3|
C|---------------3-3--3-3--------|

D|15-0----15-0----15-0----15-0---------------15-0-------------------------|
A|----13-0----13-0----13-0----13-0-10-0-13-0-----13-0-13-15-13-12-12-13-12|
F|------------------------------------------------------------------------|
C|------------------------------------------------------------------------|
G|------------------------------------------------------------------------|
C|------------------------------------------------------------------------|

D|----15-0----15-0----15-0----15-0---------15-0-------------------|
A|13-0----13-0----13-0----13-0----10-0-13-0----13-0-13-15-13-15-17|
F|----------------------------------------------------------------|
C|----------------------------------------------------------------|
G|----------------------------------------------------------------|
C|----------------------------------------------------------------|

D|15-0----15-0----15-0----15-0---------------15-0-------------------------|
A|----13-0----13-0----13-0----13-0-10-0-13-0-----13-0-13-15-13-12-12-13-12|
F|------------------------------------------------------------------------|
C|------------------------------------------------------------------------|
G|------------------------------------------------------------------------|
C|------------------------------------------------------------------------|

D|----15-0----15-0----15-0----15-0---------15-0----------------------------|
A|13-0----13-0----13-0----13-0----10-0-13-0----13-0-13-15-13-12-12-13-12-13|
F|-------------------------------------------------------------------------|
C|-------------------------------------------------------------------------|
G|-------------------------------------------------------------------------|
C|-------------------------------------------------------------------------|

GTR II CHORUS
D|-------------------------------|
A|-------------------------------|
F|2-2--2-222--2-2--------5-5--5-5|
C|2-2--2-222--2-23-3--3-35-5--5-5|X2
G|0-0--0-000--0-03-3--3-33-3--3-3|
C|---------------3-3--3-3--------|



D|-----------------------|
A|-----------------------|
F|22222-------55555------| X4
C|22222--3-33-55555--5-55|
G|00000--3-33-33333--5-55|
C|-------3-33--------5-55|

GTR I VERSE 2
(SILENCE UNTIL HE SINGS "TO SHAKE THIS PITY OFF THE GROUND")
D|---------------------------------
A|8-8-8-8-8-8-88-------------------
F|9-9-9-9-9-9-99-9-9-9-9-9-9-9-9-9-
C|7-7-7-7-7-7-77-101010101010101010 X2
G|0-0-0-0-0-0-00-8-8-8-8-8-8-8-8-8-
C|---------------------------------

GTR II VERSE 2
(SILENCE UNTIL HE SINGS "TO SHAKE THIS PITY OFF THE GROUND")
D|---------------------------------
A|8-8-8-8-8-8-88-------------------
F|9-9-9-9-9-9-99-9-9-9-9-9-9-9-9-9-
C|7-7-7-7-7-7-77-101010101010101010 X2
G|0-0-0-0-0-0-00-8-8-8-8-8-8-8-8-8-
C|---------------------------------

GTR I CHORUS
D|-------------------------------|
A|-------------------------------|
F|2-2--2-222--2-2--------5-5--5-5|
C|2-2--2-222--2-23-3--3-35-5--5-5|X2
G|0-0--0-000--0-03-3--3-33-3--3-3|
C|---------------3-3--3-3--------|

D|15-0----15-0----15-0----15-0---------------15-0-------------------------|
A|----13-0----13-0----13-0----13-0-10-0-13-0-----13-0-13-15-13-12-12-13-12|
F|------------------------------------------------------------------------|
C|------------------------------------------------------------------------|
G|------------------------------------------------------------------------|
C|------------------------------------------------------------------------|

D|----15-0----15-0----15-0----15-0---------15-0-------------------|
A|13-0----13-0----13-0----13-0----10-0-13-0----13-0-13-15-13-15-17|
F|----------------------------------------------------------------|
C|----------------------------------------------------------------|
G|----------------------------------------------------------------|
C|----------------------------------------------------------------|

D|15-0----15-0----15-0----15-0---------------15-0-------------------------|
A|----13-0----13-0----13-0----13-0-10-0-13-0-----13-0-13-15-13-12-12-13-12|
F|------------------------------------------------------------------------|
C|------------------------------------------------------------------------|
G|------------------------------------------------------------------------|
C|------------------------------------------------------------------------|

D|----15-0----15-0----15-0----15-0---------15-0----------------------------|
A|13-0----13-0----13-0----13-0----10-0-13-0----13-0-13-15-13-12-12-13-12-13|
F|-------------------------------------------------------------------------|
C|-------------------------------------------------------------------------|
G|-------------------------------------------------------------------------|
C|-------------------------------------------------------------------------|

GTR II CHORUS
D|-------------------------------|
A|-------------------------------|
F|2-2--2-222--2-2--------5-5--5-5|
C|2-2--2-222--2-23-3--3-35-5--5-5|X2
G|0-0--0-000--0-03-3--3-33-3--3-3|
C|---------------3-3--3-3--------|



D|-----------------------|
A|-----------------------|
F|22222-------55555------| X4
C|22222--3-33-55555--5-55|
G|00000--3-33-33333--5-55|
C|-------3-33--------5-55|

__________________________________
NOTE:I DO NOT KNOW GTR 2 FROM HERE
_-_-_-_-_-_-_-_-_-_-_-_-_-_-_-_-_-

GTR I BREAKDOWN
D|--------------------------------------------------------|
A|13-----12------10-----12-----13-----12------10-----12---|
F|--------------------------------------------------------| X2
C|--------------------------------------------------------|
G|--------------------------------------------------------|
C|--------------------------------------------------------|

GTR 1 SOLO
D|12-5-7-8-12-5-7-8-13-5-7-8-13-5-7-8-10-5-7-8-10-5-7-8-15-5-7-8-17-5-7-8-|
A|------------------------------------------------------------------------|
F|------------------------------------------------------------------------|
C|------------------------------------------------------------------------|
G|------------------------------------------------------------------------|
C|------------------------------------------------------------------------|
X5 GET FASTER UNTIL 3RD TIME

D|855575575555755780005005000050008555755755575558000500500005000|
A|---------------------------------------------------------------|
F|---------------------------------------------------------------|
C|---------------------------------------------------------------| X2
G|---------------------------------------------------------------|
C|---------------------------------------------------------------|

GTR 1 OUTRO
D|20-20-19-19-------------|
A|------------20-20-17-17-|
F|------------------------|X8
C|------------------------|
G|------------------------|
C|------------------------|

D|20----------------------|
A|--17--------------------|
F|---------17-------------|
C|------------------------|
G|------------------------|
C|------------------------|

DISCLAIMER:I DO NOT OWN THE SONG. I ONLY WROTE THE TABS.

            
            
Suggest correction
Creating personal tab
Creating personal tab
You can edit any tab online and save it as your Personal.

You can edit, replace or remove any tab part or add personal notes – all changes will be seen only by you.

Personal tabs can be accessed anytime from any device, even offline.
Learn more »
comments
print report bad tab
3 comments total.
-1 reply
bobbybob76 10 Sep 15, 2009 02:37 PM

We all know that u dont own the song dumbass. If you dont know the whole song, dont even post it.

0 reply
pacifica-god-12 83 Nov 19, 2009 11:18 AM

shut up bobby

+1 reply
Emo_Blood 10 Mar 02, 2010 12:44 PM

Great job man. just absalutely great.
and bobby shutup,
it doesnt matter if you dont own the song
if u have like touch UPS. and ****ing shit like that
that actually HELPS people LEARN the song. i say thats what matters. :)

guest
You may want to rate the tab now too:
select rating
Wanna post a correction for this tab? Suggest correction