Oops, an error
Loading. Please wait.
We have an official My Apocalypse tab made by UG professional guitarists. Check out the tab »
×
7,543 views 6 this week
3 commentsread comments
1 2 3 4 5
2 more votes to show rating
add to favorites
×
Save as Personal and add changes to this tab that will be seen only by you. Learn more ›
×
You can save this tab as Personal to edit and correct it or add notes. All changes will be seen only by you. Learn more »
launch autoscroll
font size
0
reset
how to read this tab
guitar tuner
edit
Autoscroll
slow
fast
+/-
esc
set tempo
stop
Author
Unregistered
My Apocalypse by Escape The Fate
Tabbed by Laz.
Tunning: Standard (eBGDAE)

Couldn't figure the intro, starts at 00:09


e|--13-10-----13-10-----13-10-----13-10------------|        
B|-------11-10-----11-10-----11-10-----11-10-------|
G|-------------------------------------------------|
D|-------------------------------------------------|
A|-------------------------------------------------|
E|-------------------------------------------------|


e|------------13-10--------------------------------|
B|--8-10-11-10-----11-10-11-13-11-10-10-11-10------|
G|-------------------------------------------------|
D|-------------------------------------------------|
A|-------------------------------------------------|
E|-------------------------------------------------|

00:14

e|-------13-10-----13-10-----13-10-----13-10-------|
B|--11-10-----11-10-----11-10-----11-10------------|
G|-------------------------------------------------|
D|-------------------------------------------------|
A|-------------------------------------------------|
E|-------------------------------------------------|


e|------------13-10--------------------------------|
B|--8-10-11-10-----11-10-11-13-11-13/15------------|
G|-------------------------------------------------|
D|-------------------------------------------------|
A|-------------------------------------------------|
E|-------------------------------------------------|

Repeat at 00:21

e|--13-10-----13-10-----13-10-----13-10------------|
B|-------11-10-----11-10-----11-10-----11-10-------|
G|-------------------------------------------------|
D|-------------------------------------------------|
A|-------------------------------------------------|
E|-------------------------------------------------|


e|------------13-10--------------------------------|
B|--8-10-11-10-----11-10-11-13-11-10-10-11-10------|
G|-------------------------------------------------|
D|-------------------------------------------------|
A|-------------------------------------------------|
E|-------------------------------------------------|

00:26

e|-------13-10-----13-10-----13-10-----13-10-------|
B|--11-10-----11-10-----11-10-----11-10------------|
G|-------------------------------------------------|
D|-------------------------------------------------|
A|-------------------------------------------------|
E|-------------------------------------------------|


e|------------13-10--------------------------------|
B|--8-10-11-10-----11-10-11-13-11-10-10-11-10-11~--|
G|-------------------------------------------------|
D|-------------------------------------------------|
A|-------------------------------------------------|
E|-------------------------------------------------|

Hold to the begining of the lyrics and then starts

00:41

e|-------------------------------------------------|
B|--18---18---18---18---18---18---15---------------|
G|----15---15---15---15---15---15---15--15---------|
D|------------------------------------17-----------|
A|-------------------------------------------------|
E|-------------------------------------------------|

Repeat 4 times

01:00

e|-------------------------------------------------|
B|-------------------------------------------------|
G|---------5---------5---------3---------5---------|
D|--5-5-x--5--5-5-x--5--3-3-x--3--3-3-x--5---------|
A|--5-5-x--3--5-5-x--3--3-3-x--1--3-3-x--3---------|
E|--3-3-x-----3-3-x-----1-1-x-----1-1-x------------|

Play Twice and repeat the Intro
 
01:41

e|-------------------------------------------------|
B|-------------------------------------------------|
G|------------------------------5-55-5-55----------|
D|--5-5-5-5-5-5-555--0-00-0-00--5-55-5-55----------|
A|--5-5-5-5-5-5-555--0-00-0-00--3-33-3-33----------|
E|--3-3-3-3-3-3-333--0-00-0-00---------------------|


e|-------------------------------------------------|
B|-------------------------------------------------|
G|-------------------------------------------------|
D|--5-5-5-5-5-5-555--0-00-0-00--3-33-3-3333~-------|
A|--5-5-5-5-5-5-555--0-00-0-00--3-33-3-3333~-------|
E|--3-3-3-3-3-3-333--0-00-0-00--1-11-1-1111~-------|


e|-------------------------------------------------|
B|-------------------------------------------------|
G|---------5---------5---------3---------5---------|
D|--5-5-x--5--5-5-x--5--3-3-x--3--3-3-x--5---------|
A|--5-5-x--3--5-5-x--3--3-3-x--1--3-3-x--3---------|
E|--3-3-x-----3-3-x-----1-1-x-----1-1-x------------|

Play Twice

Repeat the Intro

02:22

e|-------------------------------------------------|
B|--11~--10~--8~/11~--13~--10~--8~--11~--10~--8~---|
G|-------------------------------------------------|
D|-------------------------------------------------|
A|-------------------------------------------------|
E|-------------------------------------------------|


e|-------------------------------------------------|
B|--11~--13~--15~/13~------------------------------|
G|-------------------------------------------------|
D|-------------------------------------------------|
A|-------------------------------------------------|
E|-------------------------------------------------|

Solo

It's kinda hard to explain the speed in each part,
so listen to the parts and figure the speed, anyway
it's actually easy to do.

03:00

    t          t         t          t    
e|--10--3-5-6--10-3-5-6--11--3-5-6--11--3-5-6------|
B|-------------------------------------------------|
G|-------------------------------------------------|
D|-------------------------------------------------|
A|-------------------------------------------------|
E|-------------------------------------------------|

    t         t         t          t    
e|--8--3-5-6--8--3-5-6--13--3-5-6--15--3-5-6-------|
B|-------------------------------------------------|
G|-------------------------------------------------|
D|-------------------------------------------------|
A|-------------------------------------------------|
E|-------------------------------------------------|

03:15

    t          t         t          t    
e|--10--3-5-6--10-3-5-6--10--3-5-6--10--3-5-6------|
B|-------------------------------------------------|
G|-------------------------------------------------|
D|-------------------------------------------------|
A|-------------------------------------------------|
E|-------------------------------------------------|

    t          t          t          t    
e|--11--3-5-6--11--3-5-6--11--3-5-6--11--3-5-6-----|
B|-------------------------------------------------|
G|-------------------------------------------------|
D|-------------------------------------------------|
A|-------------------------------------------------|
E|-------------------------------------------------|

    t         t         t         t    
e|--8--3-5-6--8--3-5-6--8--3-5-6--8--3-5-6---------|
B|-------------------------------------------------|
G|-------------------------------------------------|
D|-------------------------------------------------|
A|-------------------------------------------------|
E|-------------------------------------------------|

    t          t          t          t    
e|--13--3-5-6--13--3-5-6--15--3-5-6--15~-----------|
B|-------------------------------------------------|
G|-------------------------------------------------|
D|-------------------------------------------------|
A|-------------------------------------------------|
E|-------------------------------------------------|

03:22

    t          t         t          t    
e|--10--3-5-6--10-3-5-6--10--3-5-6--10--3-5-6------|
B|-------------------------------------------------|
G|-------------------------------------------------|
D|-------------------------------------------------|
A|-------------------------------------------------|
E|-------------------------------------------------|

Play Twice

    t          t          t          t    
e|--11--3-5-6--11--3-5-6--11--3-5-6--11--3-5-6-----|
B|-------------------------------------------------|
G|-------------------------------------------------|
D|-------------------------------------------------|
A|-------------------------------------------------|
E|-------------------------------------------------|

Play Twice

    t         t         t         t    
e|--8--3-5-6--8--3-5-6--8--3-5-6--8--3-5-6---------|
B|-------------------------------------------------|
G|-------------------------------------------------|
D|-------------------------------------------------|
A|-------------------------------------------------|
E|-------------------------------------------------|

Play Twice

    t          t          t          t    
e|--13--3-5-6--13--3-5-6--13--3-5-6--13-3-5-6------|
B|-------------------------------------------------|
G|-------------------------------------------------|
D|-------------------------------------------------|
A|-------------------------------------------------|
E|-------------------------------------------------|

    t          t          t          t    
e|--15--3-5-6--15--3-5-6--15--3-5-6--15-3-5-6------|
B|-------------------------------------------------|
G|-------------------------------------------------|
D|-------------------------------------------------|
A|-------------------------------------------------|
E|-------------------------------------------------|

03:32

    t          t          t          t    
e|--10--3-5-6--11--3-5-6--10--3-5-6--13-3-5-6------|
B|-------------------------------------------------|
G|-------------------------------------------------|
D|-------------------------------------------------|
A|-------------------------------------------------|
E|-------------------------------------------------|

    t          t          t          t    
e|--11--3-5-6--15--3-5-6--13--3-5-6--15-3-5-6------|
B|-------------------------------------------------|
G|-------------------------------------------------|
D|-------------------------------------------------|
A|-------------------------------------------------|
E|-------------------------------------------------|

Repeat 3 Times and then

    t          t          t          t    
e|--10--3-5-6--11--3-5-6--10--3-5-6--13-3-5-6------|
B|-------------------------------------------------|
G|-------------------------------------------------|
D|-------------------------------------------------|
A|-------------------------------------------------|
E|-------------------------------------------------|

    t          t          t             
e|--11--3-5-6--15--3-5-6--15~----------------------|
B|-------------------------------------------------|
G|-------------------------------------------------|
D|-------------------------------------------------|
A|-------------------------------------------------|
E|-------------------------------------------------|

03:41

e|--6-3-6-3-5-3-3-5-3-3-5-3--3---3-----------------|
B|-----------------------------3---3---------------|
G|-------------------------------------------------|
D|-------------------------------------------------|
A|-------------------------------------------------|
E|-------------------------------------------------|

Repeat 3 Times and then

e|--6-3-6-3-5-3-3-5-3-3-5-3--3---------------------|
B|-----------------------------3-3-3---------------|
G|-------------------------------------------------|
D|-------------------------------------------------|
A|-------------------------------------------------|
E|-------------------------------------------------|

03:51

e|--11-10-6-5-6-5-3-5--11-10-6-5-6-5-3-5-----------|
B|-------------------------------------------------|
G|-------------------------------------------------|
D|-------------------------------------------------|
A|-------------------------------------------------|
E|-------------------------------------------------|

I'm not sure about this part but it sound's good

e|--11-10-10-6-5-5-6-5-3-5-6-00-5-00-3-00-5-00-353-|
B|-------------------------------------------------|
G|-------------------------------------------------|
D|-------------------------------------------------|
A|-------------------------------------------------|
E|-------------------------------------------------|

04:02 and repeat till end.

e|--18-18-17-17-13-13-10-10~-----------------------|
B|-------------------------------------------------|
G|-------------------------------------------------|
D|-------------------------------------------------|
A|-------------------------------------------------|
E|-------------------------------------------------|


Hope you find it well. See ya

            
            
Suggest correction
Creating personal tab
Creating personal tab
You can edit any tab online and save it as your Personal.

You can edit, replace or remove any tab part or add personal notes – all changes will be seen only by you.

Personal tabs can be accessed anytime from any device, even offline.
Learn more »
Give kudos to tab author, rate the tab!
1 2 3 4 5
comments
print report bad tab
3 comments total.
+1 reply
deluge_nl 145 Sep 20, 2010 07:04 AM

This song is played in Drop C, not standard tuning..

0 reply
Lazdah 10 Sep 22, 2010 09:18 AM

yeah i know. but i made this tabs for those who can't tune their guitars to drop c and want to play it with a normal tuning

0 reply
B.C.RichRulz 331 Aug 09, 2011 04:54 PM

hey, i find it considerate that you make this tab in standard but what i'd do if i were you is make this tab in drop d. everyone can tune to drop d and you get the satisfaction of playing this in a dropped tunning.

guest
Wanna post a correction for this tab? Suggest correction