Oops, an error
Loading. Please wait.
We have an official Not Good Enough For Truth In Cliche tab made by UG professional guitarists. Check out the tab »
×
41,930 views 12 this week
6 commentsread comments
1 2 3 4 5
x 8
add to favorites
×
Save as Personal and add changes to this tab that will be seen only by you. Learn more ›
×
You can save this tab as Personal to edit and correct it or add notes. All changes will be seen only by you. Learn more »
launch autoscroll
font size
0
reset
guitar tuner
edit
Autoscroll
slow
fast
+/-
esc
set tempo
stop
Author
Difficulty
intro 1                     

G|-------------|              
D|-------------|              
A|-2~-4~-------|  x2           
E|-------6~-7~-|               

intro 2

|-----------------------------|
|-----------------------------|
|-22-222-44-444---------------|  x2
|---------------66-666-77-777-|

verse

|-------------------------------------|
|-------------------------------------|
|-22222222-44444444-------------------|  x4
|-------------------66666666-77777777-|

chorus

|--------------------------------------------------------------------------------|
|--------------------------------------------------------------------------------|
|--------------------------------------------------------------------------------|
|-2~-1~-6~-7~-2222222222222222-111111111111111-6666666666666666-7777777777777777-|

post chorus

|----------------------------------------------------|
|----------------------------------------------------|
|-22-222-44-444---------------22-222-44-444----------|
|---------------66-666-77-777---------------6-4-2-1~-|

verse

|-------------------------------------|
|-------------------------------------|
|-22222222-44444444-------------------|  x4
|-------------------66666666-77777777-|


chorus

|--------------------------------------------------------------------------------|
|--------------------------------------------------------------------------------|
|--------------------------------------------------------------------------------|
|-2~-1~-6~-7~-2222222222222222-111111111111111-6666666666666666-7777777777777777-|

bridge

|-------------------------------------------------------------|
|-------------------------------------------------------------|
|-22-222-44-444---------------22-222-44-444-------------------|
|---------------66-666-77-777---------------66666666-77777777-|

|----------------------------------|
|----------------------------------|
|----------------------------------|  x4 
|-22222222-44444444-66666666-6666~-|         

|-------------|			|-----------------------------|
|-------------|			|-----------------------------|
|--2~-4~------|	x2		|-22-222-44-444---------------|  x2                 
|-------6~-7~-|			|---------------66-666-77-777-| 

outro

|----------------------------------------------------|
|----------------------------------------------------|
|-22-222-44-444---------------22-222-44-444----------|
|---------------66-666-77-777---------------6-4-2-1~-|

            
            
Suggest correction
Creating personal tab
Creating personal tab
You can edit any tab online and save it as your Personal.

You can edit, replace or remove any tab part or add personal notes – all changes will be seen only by you.

Personal tabs can be accessed anytime from any device, even offline.
Learn more »
comments
print report bad tab
6 comments total. Showing first comments.
0 reply
jrballa12 52 Jun 28, 2007 04:21 PM

this is pretty close to what i got ill eventually post it once its 100% accurate but good job

+4 reply
minniza 10 Jun 01, 2008 02:04 AM

Love this tab=)

0 reply
thunderhawk 535 Aug 23, 2009 02:33 PM

i am pretty sure this is in drop C btw. max green uses a 5 string bass. so ya. good tab btw.

guest
You may want to rate the tab now too:
select rating
Wanna post a correction for this tab? Suggest correction