Oops, an error
Loading. Please wait.
We have an official Not Good Enough For Truth In Cliche tab made by UG professional guitarists. Check out the tab »
×
51,057 views 6 this week
3 commentsread comments
1 2 3 4 5
x 4
add to favorites
×
Save as Personal and add changes to this tab that will be seen only by you. Learn more ›
×
You can save this tab as Personal to edit and correct it or add notes. All changes will be seen only by you. Learn more »
launch autoscroll
font size
0
reset
how to read this tab
guitar tuner
edit
Autoscroll
slow
fast
+/-
esc
set tempo
stop
Author
Difficulty
Standard Tuning EBGDAE
Tabbed By: Mitch Craig

All the other Songs this tab is all the demo Most people are probably
Gonna go to A 1/2 Step Down Cause that's what the other tabs would be
A Half step down cause the demo version is in standard also One Fret 
Higher So Most are obviously gonna go down one step But If you can 
Harmonic 13 well then do what you want I keep It Standard cause Its 
Easier to Harmonic the 12th fret On High E string If that's what its 
Called... 

Please rate this tab
Album: Dying Is Your Latest Fashion
Length of song: 3:51 
The other song length is 3:41(demo)

Guitar 1 
Guitar 2 
I don't who plays what Guitar so Here

~ is Ring Out

* Means Harmonic

/ Slide Up

\ Slide Down

x Mute Note

. Is Palm Mute

Intro [[Guitar 1]]
|----------------------------------------------|
|----------------------------------------------|
|----------------------------------------------|
|--3-7--5--3-----3-7--5--3---3---3-3---3--3-3--| 
|-5---5--5-----33---3--3---00--00-0--11-11-1---|
|----------------------------------------------|
  All Notes Palm Muted
|-----------------------------------------|
|------------------------------------3~~--|
|------------------------------------3~~--|
|--3-7--5--3-----3-7--5--3---3---3-3-3~~--|
|-5---5--5-----33---3--3---00--00-0-------|
|-----------------------------------------|

|------------------------------------------------------|
|------------------------------------------------------|
|-77-7-77--7-99-9-99--9-55-5-55--1010--10\9--9\7--7\5--|
|-xx-x-xx--x-xx-x-xx--x-xx-x-xx--x-x---x--x--x-x--x-x--|
|-55-5-55--5-77-7-77--7-33-3-33--8-8---8-\7--7\5--5\3--|
|------------------------------------------------------|

|------------------------------------------------------|
|------------------------------------------------------|
|-77-7-77--7-99-9-99--9-55-5-55--1010--10\9--9\7--7\5--|
|-xx-x-xx--x-xx-x-xx--x-xx-x-xx--x-x---x--x--x-x--x-x--|
|-55-5-55--5-77-7-77--7-33-3-33--8-8---8-\7--7\5--5\3--|
|------------------------------------------------------|

Verse
|-------------------------------------|
|-6-6-6-6-6-6-6-6--8-8-8-8--5-5-5-5---|
|--5-5-5-5-5-5-5-5--5-5-5-5--5-5-5-5--|
|-------------------------------------|
|-------------------------------------|
|-------------------------------------|

Play this 4 times

Chorus
|-----------------------------------------------|
|-----------------------------------------------|
|---------------------2~~~~~~~~-3~~~~-33333333--|
|---------------------2~~~~~~~~-3~~~~-33333333--|
|-3~~~~~~~~-3~~~~~~~~-0~~~~~~~~-1~~~~-11111111--|
|-1~~~~~~~~-0~~~~~~~~---------------------------|

|--------------------------------------|
|--------------------------------------|
|-------------------22222222-33333333--|
|-33333333----------22222222-33333333--|
|-33333333-33333333-00000000-11111111--|
|-11111111-00000000--------------------|



|------------------------------------------------------|
|------------------------------------------------------|
|-77-7-77--7-99-9-99--9-55-5-55--1010--10\9--9\7--7\5--|
|-xx-x-xx--x-xx-x-xx--x-xx-x-xx--x-x---x--x--x-x--x-x--|
|-55-5-55--5-77-7-77--7-33-3-33--8-8---8-\7--7\5--5\3--|
|------------------------------------------------------|

|------------------------------------------|
|------------------------------------------|
|-77-7-77--7-99-9-99--9--------------------|
|-xx-x-xx--x-xx-x-xx--x--7~~-5~~-3~--------|
|-55-5-55--5-77-7-77--7--7~~-5~~-3~-3~~~~--|
|------------------------5~~-3~~-1~-0~~~~--|

Verse 2
|-------------------------------------|
|-6-6-6-6-6-6-6-6--8-8-8-8--5-5-5-5---|
|--5-5-5-5-5-5-5-5--5-5-5-5--5-5-5-5--|
|-------------------------------------|
|-------------------------------------|
|-------------------------------------|

Again 4 times

Chorus
|-----------------------------------------------|
|-----------------------------------------------|
|---------------------2~~~~~~~~-3~~~~-33333333--|
|---------------------2~~~~~~~~-3~~~~-33333333--|
|-3~~~~~~~~-3~~~~~~~~-0~~~~~~~~-1~~~~-11111111--|
|-1~~~~~~~~-0~~~~~~~~---------------------------|


|--------------------------------------|
|--------------------------------------|
|-------------------22222222-33333333--|
|-33333333----------22222222-33333333--|
|-33333333-33333333-00000000-11111111--|
|-11111111-00000000--------------------|


Bridge                               *                                
|------------------------------------12~~--|
|------------------------------------------|
|------------------------------------------|
|-33333333-55555555-7777777777777777-------|
|-33333333-55555555-7777777777777777-------|
|-11111111-33333333-5555555555555555-------|
Play 4 times

|----------------------------------------------|
|----------------------------------------------|
|----------------------------------------------|
|--3-7--5--3-----3-7--5--3---3---3-3---3--3-3--| 
|-5---5--5-----33---3--3---00--00-0--11-11-1---|
|----------------------------------------------|
All The Notes Palm Muted Played 2 times

Outro/Last Chorus
|------------------------------------------------------|
|------------------------------------------------------|
|-77-7-77--7-99-9-99--9-55-5-55--1010--10\9--9\7--7\5--|
|-xx-x-xx--x-xx-x-xx--x-xx-x-xx--x-x---x--x--x-x--x-x--|5x
|-55-5-55--5-77-7-77--7-33-3-33--8-8---8-\7--7\5--5\3--|
|------------------------------------------------------|


|------------------------------------------|
|------------------------------------------|
|-77-7-77--7-99-9-99--9--------------------|
|-xx-x-xx--x-xx-x-xx--x--7~~-5~~-3~--------|
|-55-5-55--5-77-7-77--7--7~~-5~~-3~-3~~~~--|
|------------------------5~~-3~~-1~-0~~~~--|




Intro [[Guitar 2]]  Its some Like Fade in like squeely thing But If you 13 it sounds like it 
|-13~~~~~~~~~~~~~~~~~~~~~~~~--|
|-----------------------------|
|-----------------------------|
|-----------------------------|
|-----------------------------| Vol Knob Turn Up Slow sort of..
|-----------------------------|

|------------------------------------------------------|
|------------------------------------------------------|
|-77-7-77--7-99-9-99--9-55-5-55--1010--10\9--9\7--7\5--|
|-xx-x-xx--x-xx-x-xx--x-xx-x-xx--x-x---x--x--x-x--x-x--|
|-55-5-55--5-77-7-77--7-33-3-33--8-8---8-\7--7\5--5\3--|
|------------------------------------------------------|

|------------------------------------------------------|
|------------------------------------------------------|
|-77-7-77--7-99-9-99--9-55-5-55--1010--10\9--9\7--7\5--|
|-xx-x-xx--x-xx-x-xx--x-xx-x-xx--x-x---x--x--x-x--x-x--|
|-55-5-55--5-77-7-77--7-33-3-33--8-8---8-\7--7\5--5\3--|
|------------------------------------------------------|

Verse
|--------------------------------------|
|--------------------------------------|
|--------------------------------------|
|-33333333-55555555-22222222-33333333--|
|-11111111-33333333-00000000-11111111--|
|--------------------------------------|
Played 2 times all notes Palm Muted

|----------------------------------------------------------------|
|----------------------------------------------------------------|
|----------------------------------------------------------------|
|---3-3----3-3----3-3----3-3-----7-3---7-3-----3-3----3-3--3333--|
|-55-5---55-5---55-5---55-5----55-5--55-5----55-5---55-5---1111--|
|----------------------------------------------------------------|
  .. .   .. .   .. .   .. .    .. .  .. .    .. .   .. .
Chorus
|-----------------------------------------------|
|-----------------------------------------------|
|---------------------2~~~~~~~~-3~~~~-33333333--|
|---------------------2~~~~~~~~-3~~~~-33333333--|
|-3~~~~~~~~-3~~~~~~~~-0~~~~~~~~-1~~~~-11111111--|
|-1~~~~~~~~-0~~~~~~~~---------------------------|


|--------------------------------------|
|--------------------------------------|
|-------------------22222222-33333333--|
|-33333333----------22222222-33333333--|
|-33333333-33333333-00000000-11111111--|
|-11111111-00000000--------------------|



|------------------------------------------------------|
|------------------------------------------------------|
|-77-7-77--7-99-9-99--9-55-5-55--1010--10\9--9\7--7\5--|
|-xx-x-xx--x-xx-x-xx--x-xx-x-xx--x-x---x--x--x-x--x-x--|
|-55-5-55--5-77-7-77--7-33-3-33--8-8---8-\7--7\5--5\3--|
|------------------------------------------------------|

|------------------------------------------|
|------------------------------------------|
|-77-7-77--7-99-9-99--9--------------------|
|-xx-x-xx--x-xx-x-xx--x--7~~-5~~-3~--------|
|-55-5-55--5-77-7-77--7--7~~-5~~-3~-3~~~~--|
|------------------------5~~-3~~-1~-0~~~~--|

Verse 2
|--------------------------------------|
|--------------------------------------|
|--------------------------------------|
|-33333333-55555555-22222222-33333333--|
|-11111111-33333333-00000000-11111111--|
|--------------------------------------|
Played 2 times all notes Palm Muted

|----------------------------------------------------------------|
|----------------------------------------------------------------|
|----------------------------------------------------------------|
|---3-3----3-3----3-3----3-3-----7-3---7-3-----3-3----3-3--3333--|
|-55-5---55-5---55-5---55-5----55-5--55-5----55-5---55-5---1111--|
|----------------------------------------------------------------|
  .. .   .. .   .. .   .. .    .. .  .. .    .. .   .. .


Chorus 2
|-----------------------------------------------|
|-----------------------------------------------|
|---------------------2~~~~~~~~-3~~~~-33333333--|
|---------------------2~~~~~~~~-3~~~~-33333333--|
|-3~~~~~~~~-3~~~~~~~~-0~~~~~~~~-1~~~~-11111111--|
|-1~~~~~~~~-0~~~~~~~~---------------------------|

|--------------------------------------|
|--------------------------------------|
|-------------------22222222-33333333--|
|-33333333----------22222222-33333333--|
|-33333333-33333333-00000000-11111111--|
|-11111111-00000000--------------------|


Bridge                               *
|------------------------------------12~~--|
|-66666666---------------------------------|
|-xxxxxxxx---------------------------------|
|-33333333-55555555-7777777777777777-------|
|----------55555555-7777777777777777-------|
|----------33333333-5555555555555555-------|
Played 4 times


|------------------------------------------------------|
|------------------------------------------------------|
|-77-7-77--7-99-9-99--9-55-5-55--1010--10\9--9\7--7\5--|
|-xx-x-xx--x-xx-x-xx--x-xx-x-xx--x-x---x--x--x-x--x-x--|
|-55-5-55--5-77-7-77--7-33-3-33--8-8---8-\7--7\5--5\3--|Clean
|------------------------------------------------------|


|-----------------------------|
|-----------------------3~~---|
|-77-7-77--7-99-9-99--9-3~~---|
|-xx-x-xx--x-xx-x-xx--x-3~~---|Clean
|-55-5-55--5-77-7-77--7-------|
|-----------------------------|

Outro/ Last Chorus
|------------------------------------------------------|
|------------------------------------------------------|
|-77-7-77--7-99-9-99--9-55-5-55--1010--10\9--9\7--7\5--|
|-xx-x-xx--x-xx-x-xx--x-xx-x-xx--x-x---x--x--x-x--x-x--|5x
|-55-5-55--5-77-7-77--7-33-3-33--8-8---8-\7--7\5--5\3--|
|------------------------------------------------------|


|------------------------------------------|
|------------------------------------------|
|-77-7-77--7-99-9-99--9--------------------|
|-xx-x-xx--x-xx-x-xx--x--7~~-5~~-3~--------|
|-55-5-55--5-77-7-77--7--7~~-5~~-3~-3~~~~--|
|------------------------5~~-3~~-1~-0~~~~--|








            
            
Suggest correction
Creating personal tab
Creating personal tab
You can edit any tab online and save it as your Personal.

You can edit, replace or remove any tab part or add personal notes – all changes will be seen only by you.

Personal tabs can be accessed anytime from any device, even offline.
Learn more »
comments
print report bad tab
3 comments total.
0 reply
fret13 1,031 Dec 19, 2006 01:12 PM

minor errors

0 reply
guitar_eric 10 Dec 30, 2006 11:48 AM

Great tab, few errors, but keep it up... please, post more Escape the Fate songs! keep it up.

0 reply
[FrozEn] 174 Mar 27, 2007 12:24 AM

Im afraid this songs in Drop C, whether you like it or not ;) So i suggest tabbing it in drop c.

guest
You may want to rate the tab now too:
select rating
Wanna post a correction for this tab? Suggest correction