Oops, an error
Loading. Please wait.

Not Good Enough For Truth Or Cliche bass

8,845 views 3 this week
11 commentsread comments
1 2 3 4 5
x 8
add to favorites
×
Save as Personal and add changes to this tab that will be seen only by you. Learn more ›
×
You can save this tab as Personal to edit and correct it or add notes. All changes will be seen only by you. Learn more »
launch autoscroll
font size
0
reset
guitar tuner
edit
Autoscroll
slow
fast
+/-
esc
set tempo
stop
Song: Not Good Enough for Truth or Cliche
Band: Escape The Fate
Album: Dying Is Your Latest Fashion (2006)
Tabbed By: Matt Morris
Tuning: Standard (GDAE)...
I DO REALIZE ALL OF THIS BANDS SONGS ARE IN DROP C BUT I FOUND IT OUT IN STANDARD SO 
IS REALLY NO NEED TO HAVE IT IN DROP C SO ALL OF YOU HATERS CAN GO FUCK YOURSELVES

intro pt.1                     intro pt.2

G|-------------|               |-----------------------------|
D|-------------|               |-----------------------------|
A|-2~-4~-------|  x2           |-22-222-44-444---------------|  x2
E|-------6~-7~-|               |---------------66-666-77-777-|

verse

|------------------------------------|
|------------------------------------|
|-2222222222222222-------------------|  x4
|------------------66666666-77777777-|

chorus

|--------------------------------------------------------------------------------|
|--------------------------------------------------------------------------------|
|--------------------------------------------------------------------------------|
|-2~-1~-6~-7~-2222222222222222-111111111111111-6666666666666666-7777777777777777-|

post chorus

|----------------------------------------------------|
|----------------------------------------------------|
|-22-222-44-444---------------22-222-44-444----------|
|---------------66-666-77-777---------------6-4-2-1~-|

verse

|------------------------------------|
|------------------------------------|
|-2222222222222222-------------------|  x4
|------------------66666666-77777777-|

chorus

|--------------------------------------------------------------------------------|
|--------------------------------------------------------------------------------|
|--------------------------------------------------------------------------------|
|-2~-1~-6~-7~-2222222222222222-111111111111111-6666666666666666-7777777777777777-|

bridge

|-------------------------------------------------------------|
|-------------------------------------------------------------|
|-22-222-44-444---------------22-222-44-444-------------------|
|---------------66-666-77-777---------------66666666-77777777-|

|----------------------------------|
|----------------------------------|
|----------------------------------|  x4 (you can also ring out on 8 on the "A" string
|-22222222-44444444-66666666-6666~-|          instead of 6.. its your choice)

outro

|-------------------------------------------------|
|-------------------------------------------------|
|-22-222-44-444---------------22-222-44-444-------|
|---------------66-666-77-777---------------6~-4~-|

BYE
Suggest correction
Creating personal tab
Creating personal tab
You can edit any tab online and save it as your Personal.

You can edit, replace or remove any tab part or add personal notes – all changes will be seen only by you.

Personal tabs can be accessed anytime from any device, even offline.
Learn more »
comments
print report bad tab
11 comments total. Showing first comments.
0 reply
ledzepprules09 10 Oct 07, 2006 09:36 AM

Your verse is a little off.. Should be..:

verse

|-------------------------------------|
|-------------------------------------|
|-22222222-44444444-------------------| x4
|-------------------66666666-77777777-|

0 reply
ETFrockxxx 185 Nov 15, 2006 06:40 AM

all stupid xD why you guys didn't to learn that all the songs of escape the fate are in drop C .. fags loll

0 reply
someperson 251 Mar 08, 2007 02:55 PM

Everything on the E string sounds alittle off. I think ETFrockxxx is probably right. But i just started bass so idk how to tune it in drop C. XD

guest
You may want to rate the tab now too:
select rating
Wanna post a correction for this tab? Suggest correction