Oops, an error
Loading. Please wait.

On To The Next One bass

version 2
version 2

Whole song

Interactive

1,158 views 1 this week
no commentswrite comment
1 2 3 4 5
3 more votes to show rating
add to favorites
×
Save as Personal and add changes to this tab that will be seen only by you. Learn more ›
×
You can save this tab as Personal to edit and correct it or add notes. All changes will be seen only by you. Learn more »
launch autoscroll
font size
0
reset
guitar tuner
edit
Autoscroll
slow
fast
+/-
esc
set tempo
stop
Author
Song: On to the Next One
Artist: Escape the Fate
Album: This War Is Ours
Bassist: Max Green
Tuning: Drop C (CGCF)
(Note: Max Green uses a pick on this song and to get the right tone, I do too.)

Intro into Verse 1 (Just guitar until around 0:04/5)
F|-----||(0:09)---------------|
C|-----||-\  /----------------|
G|-----||--\/-------0-------0-|X6
C|-0-0-||--\-0-0-0---3-3-25---|

Pre-Chorus (0:36)
F|----------------------|
C|----------------------|
G|-1-1-1--11333344-4-44-|
C|----------------------|

Chorus (0:41)
F|-------------------------------------------------|
C|-------------------------------------------------|
G|-------------3~3~3-333-45~5~5-555-554~4~4-444-44-|X2
C|-3~3~33-3-333------------------------------------|
                                         
Verse 2 (Again guitar starts)           
F|-Bass comes---||-(1:04)----------------------------------------|
C|-in at (1:01)-||---5h7-5-3--5h7-5-3--5h7-5-3--5h7-5-3--5h7-5-3-|
G|--------0-----||-5~-------4~-------3~-------3~-------2~--------|
C|-3-3-25-------||-----------------------------------------------|
                                                         |^^^^^^|
Rest of Verse 2 (1:13)                             Could be wrong but 
F|------------------------|                        that's what I play
C|------------------------|
G|-------0-------0------0-|
C|-0-0-0--3-3-25--0-0-0---|

Pre-Chorus (1:21.5)
F|----------------------|
C|----------------------|
G|-1-1-1--11333344-4-44-|
C|----------------------|

Chorus (1:26)                                             Pre-Solo (1:44)
F|-------------------------------------------------|  |-----------------|
C|-------------------------------------------------|  |-----------------|
G|-------------3~3~3-333-45~5~5-555-554~4~4-444-44-|X2|-4~4~4~4~44-4-44-|
C|-3~3~33-3-333------------------------------------|  |-----------------|

Solo                   
F|-----------------|  |------------------------------------------------|     
C|-----------------|  |----------------------------------------------7-|
G|-------0-------0-|X4|-1-1-1-1-1-1-1-1-3-3-3-3-3-3-3-3-8~-7~-5~-7~8~--|
C|-0-0-0--3-3-25---|  |------------------------------------------------|

Pre-Chorus (2:14)
F|----------------------|
C|----------------------|
G|-1-1-1--11333344-4-44-|
C|----------------------|

Last Chorus (2:18)
F|-------||-Come back in at (2:23)---|
C|-------||--------------------------|
G|----3\-||-5~5~5-555-554~4~4-444-44-|
C|-3\----||--------------------------|

F|-------------------------------------------------|  |-----------------|
C|-------------------------------------------------|  |-----------------|
G|-------------3~3~3-333-45~5~5-555-554~4~4-444-44-|X3|-4~4~4~4~44-4-44-|
C|-3~3~33-3-333------------------------------------|  |-----------------|

(2:57)
F|--------------------------------|     
C|--------------------------------|  
G|-------0-------0------0------0--|
C|-0-0-0--3-3-25--0-0-0--3-3-2--0-|

Ok that's it. The rhythm at the Choruses are probably wrong because I had a
hard time tabbing it out but the notes are right. If you can't figure out
the rhythm yourself then you probably don't have the skill to play the song.

            
            
Suggest correction
Creating personal tab
Creating personal tab
You can edit any tab online and save it as your Personal.

You can edit, replace or remove any tab part or add personal notes – all changes will be seen only by you.

Personal tabs can be accessed anytime from any device, even offline.
Learn more »
Give kudos to tab author, rate the tab!
1 2 3 4 5
comments
print report bad tab
guest
You may want to rate the tab now too:
select rating
Wanna post a correction for this tab? Suggest correction