Oops, an error
Loading. Please wait.

Ransom tab

version 3
version 3

Whole song

Interactive

1,217 views 1 this week
no commentswrite comment
1 2 3 4 5
2 more votes to show rating
add to favorites
×
Save as Personal and add changes to this tab that will be seen only by you. Learn more ›
×
You can save this tab as Personal to edit and correct it or add notes. All changes will be seen only by you. Learn more »
launch autoscroll
font size
0
reset
how to read this tab
guitar tuner
edit
Autoscroll
slow
fast
+/-
esc
set tempo
stop

Escape The Fate-The Ransom

Tabbed by ADVER

DROP C

X=Dead Note
~=Let Ring
/ \=Slide
(x?)=Times


intro
D|-----------|----|-----------|----|----------|----|------------|----|-----------|----|------|
A|------5----|----|------8----|----|------8---|----|--------8---|----|-------5---|----|-5----|
F|-5---------|----|-5---------|----|-5--------|----|---5--------|----|---5-------|----|-5----|
C|---7-----7-|(X?)|---7-----7-|(X?)|----------|(X?)|------------|(X?)|-----------|(X?)|------|
G|-----------|----|-----------|----|---8----8-|----|-----7----7-|----|-----7---7-|----|-8----|
C|-----------|----|-----------|----|----------|----|------------|----|-----------|----|------|
                                                                                        ^end chord
verse
G1
D|---------------------------------|
A|---------------------------------|
F|---------------------------------|
C|-777777-55555-3333-2222-3333-555-|
G|-777777-55555-3333-2222-3333-555-|
C|-777777-55555-3333-2222-3333-555-|
   xxxxxxxxxxxxxxxxxxxxxxxxxxxxxxx

G1 cont.
D|-------------------------------------|
A|-------------------------------------|
F|-------------------------------------|
C|-777777-55555-3333-2222-3333-555-7~~-|
G|-777777-55555-3333-2222-3333-555-7~~-|
C|-777777-55555-3333-2222-3333-555-7~~-|
   xxxxxxxxxxxxxxxxxxxxxxxxxxx

G2
D|-------------------------------------------------|
A|-------------------------------------------------|
F|-141414-121212--101010-999-1010--121212----------|
C|-141414-121212--101010-999-1010--121212----------|
G|-121212-101010---88888-777--888--101010----------|
C|-------------------------------------------------|
   xxxxxxxxxxxxxxxxxxxxxxxxxxxxxxxxxxxxxx

G2 cont.
D|------------------------------------------------------|
A|------------------------------------------------------|
F|-141414-121212--101010-999-1010--121212--14~----------|
C|-141414-121212--101010-999-1010--121212--14~----------|
G|-121212-101010---88888-777--888--101010--12~----------|
C|------------------------------------------------------|
   xxxxxxxxxxxxxxxxxxxxxxxxxxxxxx

chrous
G1
D|---------------------------------|
A|---------------------------------|
F|---------------------------------|
C|-777777-55555-3333-55555------7~-|
G|-777777-55555-3333-55555-(x2)-7~-|
C|-777777-55555-3333-55555------7~-|

G2
D|------------------------------------------------------------------|
A|------------------------------------------------------------------|
F|-11111-12121212--14-9-141414-121212-1111-77777-191919-11-12121212-|
C|-xxxxx-xxxxxxxx--xx-x-xxxxxx-xxxxxx-xxxx-xxxxx-xxxxxx-x--xxxxxxxx-|
G|-99999-10101010--12-7-121212-101010-9999-55555-171717-9--10101010-|
C|------------------------------------------------------------------|

G2 cont.
D|------------------------------------------------------------------|
A|------------------------------------------------------------------|
F|-11111-13131313--14-9-141414-121212-1111-77777-191919-171717-16~~-|
C|-xxxxx-xxxxxxxx--xx-x-xxxxxx-xxxxxx-xxxx-xxxxx-xxxxxx-xxxxxx-xx---|
G|-99999-10101010--12-7-121212-101010-9999-55555-171717-151515-14~~-|
C|------------------------------------------------------------------|


verse 2
G1
(echoy bit)


D|-----------------------------------------------------------|
A|-----------------------------------------------------------|
F|-----------------------------------------------------------|
C|-777-7777-333-333-000-000-22222-33333-5/-------------------|
G|-777-7777-333-333-000-000-22222-33333-5/-------------------|
C|-777-7777-333-333-000-000-22222-33333-5/-------------------|

D|---------------------------------------------------------------|
A|---------------------------------------------------------------|
F|---------------------------------------------------------------|
C|-777-7777-333-333-000-000-22222-33333----------------------555-|
G|-777-7777-333-333-000-000-22222-33333(x2)-second time------555-|
C|-777-7777-333-333-000-000-22222-33333----------------------555-|

G2
(echoy bit)

D|-----------------------------------------------------------|
A|-----------------------------------------------------------|
F|-141414-141414-10101010-9999-1010--12/---------------------|
C|-141414-141414-10101010-9999-1010--12/---------------------|
G|-121212-121212-888-888--7777-8888--10/---------------------|
C|-----------------------------------------------------------|


D|-----------------------------------------------------------------|
A|-----------------------------------------------------------------|
F|-141414-141414-10101010-777-777-99999-1010------------------1212-|
C|-141414-141414-10101010-777-777-99999-1010-(x2)-second time-1212-|
G|-121212-121212-888-888--555-555-77777-8888------------------1010-|
C|-----------------------------------------------------------------|

Bridge P1
G1
D|---------------------|
A|---------------------|
F|---------------------|
C|-777~~777---333~~333-|
G|-777~~777---333~~333-|
C|-777~~777---333~~333-|


G2
D|-------------------------------------------------|
A|----0---------1212-----8----------0---1212-------|
F|-5-------(x?)--xxx-5----------5--------xxx-------|
C|--7---7--------999---7---7------7---7--999-------|
G|-------------------------------------------------|
C|-------------------------------------------------|

G2 cont.

D|-----------------------------|
A|-----8~~888-----0--------888-|
F|-5-5----xxx--5------(x2)-xxx-|
C|--7-7---555----7--7------555-|
G|-----------------------------|
C|-----------------------------|

Bridge P2
G1
D|------------------------------------------------------|
A|------------------------------------------------------|
F|------------------------------------------------------|
C|-7777-7777-xxxx-3333-5555---7777-7777-xxxx-3333-55555-|
G|-7777-7777-xxxx-3333-5555---7777-7777-xxxx-3333-55555-|
C|-7777-7777-xxxx-3333-5555---7777-7777-xxxx-3333-55555-|


G2
D|--------------------------------------------|
A|-5-5--8----5-5-5--5~---5-5--8----5-5-5--0~--|
F|--7-7-----7-7-7-7-------7-7-----7-7-7-7-----|
C|--------------------------------------------|
G|--------------------------------------------|
C|--------------------------------------------|

G2 cont.
D|-------------------------------|
A|-5-5--8~---5--5~---5--8~---5~~-|
F|--7-7-----7-7-----7-7----7-----|
C|-------------------------------|
G|-------------------------------|
C|-------------------------------|

Bridge P3

G1
D|-----------------------------------------------------------------------|
A|-----------------------------------------------------------------------|
F|-----------------------------------------------------------------------|
C|-7777777-7777777-33333333-5555555---777777-777777-33333333-555555-7~~~-|
G|-7777777-7777777-33333333-5555555---777777-777777-33333333-555555-7~~~-|
C|-7777777-7777777-33333333-5555555---777777-777777-33333333-555555-7~~~-|
                                                           end chord^

G2
D|---------------------------------------------------|
A|---8p0--8p0-8p0-8p0-5~--8p0-8p0-8p0-8/10\8---5~~~~-|
F|-5----5----5---5---5---5---5---5---5---------------|
C|---------------------------------------------------|
G|---------------------------------------------------|
C|---------------------------------------------------|
                                       end note^

end
Suggest correction
Creating personal tab
Creating personal tab
You can edit any tab online and save it as your Personal.

You can edit, replace or remove any tab part or add personal notes – all changes will be seen only by you.

Personal tabs can be accessed anytime from any device, even offline.
Learn more »
Give kudos to tab author, rate the tab!
1 2 3 4 5
comments
print report bad tab
guest
You may want to rate the tab now too:
select rating
Wanna post a correction for this tab? Suggest correction