Oops, an error
Loading. Please wait.

Situations Tab

version 1
version 1
219,068 views 9 this week
35 commentsread comments
1 2 3 4 5
x 31
add to favorites
launch autoscroll
font size
0
reset
how to read this tab
guitar tuner
Autoscroll
slow
fast
+/-
esc
set tempo
stop
Help us to improve Ultimate-Guitar.com Take our survey!
×
Author
Difficulty
intermediate
Tabbed by:Mitch Craig
Band:Escape The Fate
Album:Dying Is Your Latest Fashion
Song:Situations
Tuning:Drop D      (EBGDAD)

I have no clue what the Solo part is around the end so don't complain okay you figure it out
I can't figure out this sweep picking stuff...well it just sounds like sweep picking to me so
Shut Up...and Comment on this tab

.= Palm mute
~= Let ring
x= Mute
/= Slide
H= Hammeron
P= Pulloff

Intro
|-----------------------------|
|-----------------------------|
|-----------------------------|
|-----------------------------|
|-1010--99--9-9~-66--55--9~~--|
|-1010--99--9-9~-66--55--9~~--|
            .

Verse
|-----------------------------------------------------------------------|
|-----------------------------------------------------------------------|
|-----------------------------------------------------------------------|
|-5555555555555555-4444444444444444---------------------------44444444--|
|-3333333333333333-2222222222222222-6666666666666666-55555555-22222222--|
|-----------------------------------6666666666666666-55555555-----------|
  ................ ................ ................ ........ ........

|---------------------|
|---------------------|
|---55---77---88---77-|
|---------------------|
|-33---55---66---55---|
|---------------------|
  ..   ..   ..   ..

Pre-Chorus
|----------------------------------------------|
|----------------------------------------------|
|----------------------------------------------|
|-3~3~3~3~-5~5~5~5~-6~6~6~6~-88888888-88~-99~--|
|-3~3~3~3~-5~5~5~5~-6~6~6~6~-88888888-88~-99~--|
|-3~3~3~3~-5~5~5~5~-6~6~6~6~-88888888-88~-99~--|
                                      .   .
Chorus
|------------------------------|
|------------------------------|
|-5-10-8-4-8-7-10-12--10-12-8--|
|-x-x--x-x-x-x-x--x---x--x--x--| Strummed
|-3-8--6-2-6-5-8--10--8--10-6--|
|------------------------------|

Some Odd part they just do
|-------|
|-------|
|-------|
|-------|
|-1010--|
|-1010--|


Verse
|-------------------------------------------------------|
|-------------------------------------------------------|
|-------------------------------------------------------|
|--4444444444444444---------------------------44444444--|
|--2222222222222222-6666666666666666-55555555-22222222--|
|-------------------6666666666666666-55555555-----------|             
   ................ ................ ........ ........
   
|---------------------|
|---------------------|
|---55---77---88---77-|
|---------------------|
|-33---55---66---55---|
|---------------------|
  ..   ..   ..   ..

Pre-Chorus
|----------------------------------------------|
|----------------------------------------------|
|----------------------------------------------|
|-3~3~3~3~-5~5~5~5~-6~6~6~6~-88888888-88~-99~--|
|-3~3~3~3~-5~5~5~5~-6~6~6~6~-88888888-88~-99~--|
|-3~3~3~3~-5~5~5~5~-6~6~6~6~-88888888-88~-99~--|
                                      .   .
Chorus
|------------------------------|
|------------------------------|
|-5-10-8-4-8-7-10-12--10-12-8--|
|-x-x--x-x-x-x-x--x---x--x--x--| Strummed
|-3-8--6-2-6-5-8--10--8--10-6--|
|------------------------------|
Bridge    (Kind of interups the chorus)
|-----------|
|-----------|
|-----------|
|-5~1~3~0~--|
|-----------|
|-----------|

|-----------------------------------|
|-----------------------------------|
|-12121212-5555555-1010101010101010-|
|-x-x-x-x--xxxxxxx-x-x-x-x-x-x-x-x--|
|-10101010-3333333-8-8-8-8-8-8-8-8--|
|-----------------------------------|

|-----------------------------------------------------------------------|
|-----------------------------------------------------------------------|
|-----------------------------------------------------------------------|
|-3333333333333333-5555555555555555-6666666666666666-88888888888888888--|
|-3333333333333333-5555555555555555-6666666666666666-88888888888888888--|
|-3333333333333333-5555555555555555-6666666666666666-88888888888888888--|

|------------------------------------|
|------------------------------------|
|------------------------------------|
|-3333333333333333-5555555555555555--|
|-3333333333333333-5555555555555555--|
|-3333333333333333-5555555555555555--|


|----------------------------------------------------------|
|----------------------------------------------------------|
|----------------------------------------------------------|
|-5555555555555555-4444444444444444------------------5~~~--|
|-3333333333333333-2222222222222222-6666666666666666-x-----|
|-----------------------------------6666666666666666-5~~~--|

Chorus
|------------------------------|
|------------------------------|
|-5-10-8-4-8-7-10-12--10-12-8--|
|-x-x--x-x-x-x-x--x---x--x--x--| Strummed
|-3-8--6-2-6-5-8--10--8--10-6--|
|------------------------------|
(The Cool part comes in around here :( and I don't know it)

Outro
|----------------|
|----------------|
|----------------|
|-5~1~3~0~~~~~---|
|-5~1~3~0~~~~~---|
|-5~1~3~0~~~~~---|


 and Matt if you look at this which you will.....(EDDIE MURPHY?? ***K YOU!)



Everyone Please Comment this and tell me if this tab sucks remember the tuning is Drop D Okay 
Suggest correction
comments
print report bad tab
35 comments total. Showing first comments.
-1 reply
todayFOREVER 93 Aug 30, 2006 05:16 AM

KUDOS!

+5 reply
the_Skull 10 Oct 01, 2006 02:15 AM

this tab is shit

0 reply
tviscomcastic 160 Jun 23, 2007 02:00 AM

escape the fates tuning is drop C buddy

guest
You may want to rate the tab now too:
select rating
Wanna post a correction for this tab? Suggest correction