Oops, an error
Loading. Please wait.

Situations bass

version 4
version 4
2,712 views 1 this week
2 commentsread comments
1 2 3 4 5
x 4
add to favorites
×
Save as Personal and add changes to this tab that will be seen only by you. Learn more ›
×
You can save this tab as Personal to edit and correct it or add notes. All changes will be seen only by you. Learn more »
launch autoscroll
font size
0
reset
guitar tuner
edit
Autoscroll
slow
fast
+/-
esc
set tempo
stop
Escape the Fate
Situations
Drop C
Tabbed by: Synysterblack

-Intro-
F|---------------------|
C|---------------------|
G|-55-44-34~11-00-4~---|
C|---------------------|

-Verse-
F|--------------------------------------------------------------------|
C|--------------------------------------------------------------------|
G|-5555555577775555444444445555777711111111555533330000000044444444---|
C|--------------------------------------------------------------------|

F|--------------------------------------------------------------------|
C|--------------------------------------------------------------------|
G|-5555555577775555444444445555777711111111555533330000000044444444---|
C|--------------------------------------------------------------------|

-Pre-chorus-
F|------------------------------------------------------------|
C|------------------------------------------------------------|
G|----------------------------11~11~11~111133333333-3-4-3-5---|
C|-55~55~55~5555-77~77~77~7777--------------------------------|

-Chorus-
F|--------------------------------------------------------------------|
C|--------------------------------------------------------------------|
G|-5555555577775555444444445555777711111111555533330000000044444444---|
C|--------------------------------------------------------------------|

F|--------------------------------------------------------------------|
C|--------------------------------------------------------------------|
G|-5555555577775555444444445555777711111111555533330000000044444444---|
C|--------------------------------------------------------------------|

-Verse 2-
F|-------------------------------------------------------|
C|-------------------------------------------------------|
G|-55-444444445555777711111111555533330000000044444444---|
C|-------------------------------------------------------|

F|--------------------------------------------------------------------|
C|--------------------------------------------------------------------|
G|-5555555577775555444444445555777711111111555533330000000044444444---|
C|--------------------------------------------------------------------|

-Pre-chorus 2-
F|------------------------------------------------------------|
C|------------------------------------------------------------|
G|----------------------------11~11~11~111133333333-3-4-3-5---|
C|-55~55~55~5555-77~77~77~7777--------------------------------|

-Chorus 2-
F|--------------------------------------------------------------------|
C|--------------------------------------------------------------------|
G|-5555555577775555444444445555777711111111555533330000000044444444---|
C|--------------------------------------------------------------------|

F|------------------------------------------------------------|
C|------------------------------------------------------------|
G|-555555557777555544444444555577771111111155553333-8-5-7-4---|
C|------------------------------------------------------------|

-Bridge-
F|--------------------------------------------------------------------|
C|--------------------------------------------------------------------|
G|--------------------------------------------------------------------|
C|-8888888888888888555555555555555500000000000000007777777777777777---|

F|----------------------------------------------------------------------|
C|----------------------------------------------------------------------|
G|-----------------------------------------------------------------5~---|
C|-8888888888888888555555555555555500000000000000007777777777777777-----|

-Break-
F|----------------|
C|----------------|
G|----------------|
C|----------------|

-Chorus 3-
F|--------------------------------------------------------------------|
C|--------------------------------------------------------------------|
G|-5555555577775555444444445555777711111111555533330000000044444444---|
C|--------------------------------------------------------------------|

F|--------------------------------------------------------------------|
C|--------------------------------------------------------------------|
G|-5555555577775555444444445555777711111111555533330000000044444444---|
C|--------------------------------------------------------------------|

-Solo/end-
F|--------------------------------------------------------------------|
C|--------------------------------------------------------------------|
G|-5555555577775555444444445555777711111111555533330000000044444444---|
C|--------------------------------------------------------------------|

F|---------------------------------------------------------------|
C|---------------------------------------------------------------|
G|-555555557777555544444444555577771111111155553333-8-5-7-4-5~---|
C|---------------------------------------------------------------|
Suggest correction
Creating personal tab
Creating personal tab
You can edit any tab online and save it as your Personal.

You can edit, replace or remove any tab part or add personal notes – all changes will be seen only by you.

Personal tabs can be accessed anytime from any device, even offline.
Learn more »
comments
print report bad tab
2 comments total.
0 reply
tommoandrew 10 Sep 10, 2013 07:57 AM

Nice tab, this is the best one I've seen anywhere for Situations!

0 reply
millencolin43 10 Jul 09, 2015 08:26 PM

Clearly wrong. Tab is clearly wrong, doesn't match up to the actual song. Found a tab on songsterr and it matches up perfectly.

guest
You may want to rate the tab now too:
select rating
Wanna post a correction for this tab? Suggest correction