Oops, an error
Loading. Please wait.

Smooth Bass Tab

version 1
version 1

Whole song

Interactive

4,734 views 1 this week
3 commentsread comments
1 2 3 4 5
3 more votes to show rating
add to favorites
launch autoscroll
font size
0
reset
guitar tuner
Autoscroll
slow
fast
+/-
esc
set tempo
stop
Help us to improve Ultimate-Guitar.com Take our survey!
×
Smooth (cover)
Escape the Fate
Drop C
Tabbed By: Synysterblack

-Intro-
F|------|-----------------------|
C|------|-----------------------|
G|------|-7~5-7-3-2~202-0-10~---|x4
C|-xx-x-|-----------------------|

-Verse-
F|--------------------------------------------------------|
C|--------------------------------------------------------|
G|-7\-3-2~---------3-2~3----------------------3-2~--------|
C|--------4-5-4-2~------4-5-7~7-5-4~-4-5-4-2~2----4-5-4---|

F|--------------------------------------------------------|
C|--------------------------------------------------------|
G|-7\-3-2~---------3-2~3----------------------3-2~--------|
C|--------4-5-4-2~------4-5-7~7-5-4~-4-5-4-2~2----4-5-4---|

F|----------------------------------------------------------|
C|-------------------------------------------------2-2-2----|
G|-7\-3-2~---------3-2~---------3-2~--------------2-2-2-2---|
C|--------4-5-4-2~-----4-5-4-2~-----4-5-4-7~7-5-4-----------|

-Pre-chorus-
F|-----------------------------------|
C|-----------------------------------|
G|-2-2-2-2-5-5-5-5-6~6-6-6-6-6-6-6---|
C|-----------------------------------|

-Chorus-
F|-----------------------|
C|-----------------------|
G|-7~5-7-3-2~202-0-10~---|x3
C|-----------------------|

F|--------------|
C|--------------|
G|-7\--10-12\---|
C|--------------|

-Intro 2-
F|-----------------------|
C|-----------------------|
G|-7~5-7-3-2~202-0-10~---|x2
C|-----------------------|

-Verse 2-
F|--------------------------------------------------------|
C|--------------------------------------------------------|
G|-7\-3-2~---------3-2~3----------------------3-2~--------|
C|--------4-5-4-2~------4-5-7~7-5-4~-4-5-4-2~2----4-5-4---|

F|---------------------------------------------------------|
C|---------------------------------------------------------|
G|-7\-3-2~---------3-2~------------------------3-2~--------|
C|--------4-5-4-2~-----4-5-4-7~7-5-4~-4-5-4-2~2----4-5-4---|

F|----------------------------------------------------------|
C|-------------------------------------------------2-2-2----|
G|-7\-3-2~---------3-2~2-2-2----3-2~--------------2-2-2-2---|
C|--------4-5-4-2~-----------2~-----4-5-4-7~7-5-4-----------|

-Pre-chorus 2-
F|-------------------|
C|-------------------|
G|-2-2-2-2-5-5-5-6---|
C|-------------------|

-Chorus 2-
F|-------------------------|
C|-------------------------|
G|---7~5-7-3-2~202-0-10~---|x3
C|-9\----------------------|

F|--------------|
C|--------------|
G|-7\--10-12\---|
C|--------------|

-Pre-solo-
F|--------------------|
C|--------------------|
G|-------------9-10---|
C|-xx-x-9-10-11-------|

-Solo-
F|---------------------------------------------------------|
C|------------------------------------------------2-2-2----|
G|-7\-3-2~---------3-2~--------------------------2-2-2-2---|
C|--------4-5-4-2~-----4-5-4-2~2-1~1-2-4-7~7-5-4-----------|

-Pre-chorus 3-
F|-----------------------------------|
C|-----------------------------------|
G|-2-2-2-2-5-5-5-5-6~6-6-6-6-6-6-6---|
C|-----------------------------------|

-Chorus 3-
F|-----------------------|
C|-----------------------|
G|-7~5-7-3-2~202-0-10~---|x3
C|-----------------------|

F|--------------|
C|--------------|
G|-7\--10-12\---|
C|--------------|

-Chorus 4- 
F|----------------------|
C|----------------------|
G|--------7~5-7-3/14\---|
C|-xx-xx----------------|

F|---------------|
C|---------------|
G|-7~5-7-3/14\---|
C|---------------|

F|---------------|
C|---------------|
G|-7~5-7-3/14\---|
C|---------------|

F|-------------------------------|
C|-------------------1111-1616---|
G|-7~5-7-3/14~14-1717------------|
C|-------------------------------|

F|----------------------|
C|----------------------|
G|-7~5-7-3-2~22222222---|
C|----------------------|

F|----------------------|
C|----------------------|
G|-7~5-7-3-2~22222222---|
C|----------------------|

F|------------------------|
C|------------------------|
G|-7~9-10-3-2~2-----------|
C|-------------55-44-11---|

F|--------------|
C|--------------|
G|-7\--10-12\---|
C|--------------|

-End-
F|-----------------9\---|
C|----------------------|
G|-------------9-10-----|
C|-xx-x-9-10-11---------|


Suggest correction
Give kudos to tab author, rate the tab!
1 2 3 4 5
comments
print report bad tab
3 comments total.
+1 reply
ETF-RoxMySox 10 Jul 22, 2009 10:19 PM

Thank you for doing this!
i suck at tabbing but i wanted to learn this song so bad!
hope it sounds as good as it looks

0 reply
synysterblack 528 Jul 23, 2009 11:52 AM

No Problem

0 reply
bernd turner 10 Oct 20, 2012 01:47 PM

is there a version of this as GP?
Thanks!

guest
You may want to rate the tab now too:
select rating
Wanna post a correction for this tab? Suggest correction