Oops, an error
Loading. Please wait.

Something Bass Tab

version 1
version 1

Whole song

Interactive

15,263 views 6 this week
no commentswrite comment
1 2 3 4 5
accurate
x 3
add to favorites
launch autoscroll
font size
0
reset
guitar tuner
Autoscroll
slow
fast
+/-
esc
set tempo
stop
Help us to improve Ultimate-Guitar.com Take our survey!
×
Author
Escape the Fate
Something
Drop c
This war is ours
Tabbed by: Synysterblack

-Intro-
F|------------------------------------|
C|------------------------------------|
G|-----------------333333-36~66-6-6---|
C|-666666-66~66-6-6-------------------|

F|-----------------------------------|
C|-----------------------------------|
G|----------------333333-36666-6-6---|
C|-66666-66~66-6-6-------------------|

-Verse 1-
F|--------------------------------------------------------------|
C|--------------------------666---------------------------------|
G|----------------------6-55---5-3-3-3~3-33-3~-3-3-3~-3-33-6~---|
C|-6-6-6~6-66-6~-6-6-6~6----------------------------------------|

F|--------------------------------------------------------------|
C|--------------------------666---------------------------------|
G|----------------------6-55---5-3-3-3~3-33-3~-3-3-3~-3-33-6~---|
C|-6-6-6~6-66-6~-6-6-6~6----------------------------------------|

F|------------------------------------------------------------------|
C|---------------------------6666-----------------------------------|
G|-------------------------------5555-3-3~333333333333333333-6666---|
C|-6-6~6666666666666666666666---------------------------------------|

F|---------------------------------------------------------------9---|
C|---------------------------6666----------------------------9-10----|
G|------------------6------------5555-333333333333333333-9-10--------|
C|-6-6~66666~6666666-66666666----------------------------------------|

-Pre-chorus 1-
F|------|----------------|
C|------|----------------|
G|------|----------------|
C|-33~--|-6666-6666-66---|

-Chorus 1-
F|----------------------------------------------------------------|
C|---------5-5-55-------------------------------------------------|
G|-6-6-66-6------53-3-33-33-3-33-3----------------------33-1111---|
C|--------------------------------6-6-66-65-5-55-53-3-33----------|

F|-------------------------------------------------------|
C|-------------------------------------------------------|
G|-66666666555555553333333333333333----------------------|
C|---------------------------------6666666655555555-3~---|

-Verse 2-
F|--------------------------------------------------------------------------|
C|-----------------------------------------------------------------------6--|
G|----------------------------------55333355556666101010103333555566666-8---|
C|-66666~66-66666~66-66666~66-66666~----------------------------------------|

F|--------------------------------------------------------------------------|
C|--------------------------------------------------------------------------|
G|----------------------------------55333355556666101010106666555033331111--|
C|-66666~66-66666~66-66666~66-66666~----------------------------------------|

F|--------------------------------------------------------------------------------|
C|--------------------------------------------------------------------------------|
G|-----666----666----666----666----6665-3-3-3-3-3-3-3-3-3-3-3-3/181818181818180---|
C|-6-66---6-66---6-66---6-66---6-66-----------------------------------------------|

-Pre-chorus 2-
F|-------------------------|
C|-------------------------|
G|-----3/15----------------|
C|-33~------6666-6666-66---|

-Chorus 2-
F|----------------------------------------------------------------|
C|---------5-5-55-------------------------------------------------|
G|-6-6-66-6------53-3-33-33-3-33-3----------------------33-1111---|
C|--------------------------------6-6-66-65-5-55-53-3-33----------|

F|--------------------------------------------------------|
C|--------------------------------------------------------|
G|-66666666555555553333333333333333-----------------------|
C|---------------------------------6666666655555555-3~3---|

-Bridge 1-
F|-------------------------------------------------------------------|
C|-------------------------------------------------------------------|
G|-3-3-3-3-3-3-3-3-8-8-8-8-8-8-8-8-5-5-5-5-5-5-5-5----6~----5~-------|
C|------------------------------------------------6666--5555---------|

F|---------------------------------------------------------|
C|---------------------------------------------------------|
G|-3-3-3-3-3-3-3-3-8-8-8-8-8-8-8-5-5-5-5-5-5-5-5----6~-----|
C|----------------------------------------------6666—-5~---|

-Break-
F|--------------|
C|--------------|
G|--------------|
C|--------------|

-Pre-chorus 3-
F|-------|---------|
C|-------|---------|
G|-3-----|---------|
C|-------|-/66-----|

-Chorus 3-
F|----------------------------------------------------------------|
C|---------5-5-55-------------------------------------------------|
G|-6-6-66-6------53-3-33-33-3-33-3----------------------33-1111---|
C|--------------------------------6-6-66-65-5-55-53-3-33----------|

F|---------------------------------------------------|
C|---------------------------------------------------|
G|-6666666655555555----6~----5~----------------------|
C|-----------------6666--5555--6666666655555555-3~---|

-End-
F|------------------------------------|
C|------------------------------------|
G|-----------------333333-36~66-6-6---|
C|-666666-66~66-6-6-------------------|

F|---------------------------------|
C|---------------------------------|
G|----------------33333-15151515---|
C|-66666-66~66-6-6-----------------|
Suggest correction
What's this?
You can suggest a correction to this tab. Community and Mods will review your correction and vote to approve or reject it.
comments
We did not receive enough feedback on this tab! Please rate:
print report bad tab
1 2 3 4 5
guest
You may want to rate the tab now too:
select rating
Please do not post tabs as comments. Select "correction" instead!