Oops, an error
Loading. Please wait.

Something Bass Tab

version 2
version 2

Whole song

Interactive

1,428 views 1 this week
no commentswrite comment
1 2 3 4 5
please rate
add to favorites
launch autoscroll
font size
0
reset
guitar tuner
Autoscroll
slow
fast
+/-
esc
set tempo
stop
Help us to improve Ultimate-Guitar.com Take our survey!
×
Difficulty
Tuning
intermediate
D A D G B E
Artist: Escape The Fate
Song: Something

Escape the Fate
Something
Drop D
This war is ours
Tabbed by: Synysterblack
Transposed to Drop D by: Kelechi Nze.

-Intro-
G|------------------------------------|
D|------------------------------------|
A|-----------------111111-14~44-4-4---|
D|-444444-44~44-4-4-------------------|

G|-----------------------------------|
D|-----------------------------------|
A|----------------111111-14444-4-4---|
D|-44444-44~44-4-4-------------------|

-Verse 1-
G|--------------------------------------------------------------|
D|--------------------------444---------------------------------|
A|----------------------4-33---3-1-1-1~1-11-1~-1-1-1~-1-11-4~---|
D|-4-4-4~4-44-4~-4-4-4~4----------------------------------------|

G|--------------------------------------------------------------|
D|--------------------------444---------------------------------|
A|----------------------4-33---3-1-1-1~1-11-1~-1-1-1~-1-11-4~---|
D|-4-4-4~4-44-4~-4-4-4~4----------------------------------------|

G|------------------------------------------------------------------|
D|---------------------------4444-----------------------------------|
A|-------------------------------3333-1-1~111111111111111111-4444---|
D|-4-4~4444444444444444444444---------------------------------------|

G|---------------------------------------------------------------7---|
D|---------------------------4444----------------------------7--8----|
A|------------------4------------3333-111111111111111111-7--8--------|
D|-4-4~44444~4444444-44444444----------------------------------------|

-Pre-chorus 1-
G|------|----------------|
D|------|----------------|
A|------|----------------|
D|-11~--|-4444-4444-44---|

-Chorus 1-
G|----------------------------------------------------------------|
D|---------3-3-33-------------------------------------------------|
A|-4-4-44-4------31-1-11-11-1-11-1----------------------11--------|
D|--------------------------------4-4-44-43-3-33-31-1-11---8888---|

G|-------------------------------------------------------|
D|-------------------------------------------------------|
A|-44444444333333331111111111111111----------------------|
D|---------------------------------4444444433333333-1~---|

-Verse 2-
G|--------------------------------------------------------------------------|
D|-----------------------------------------------------------------------4--|
A|--------------------------------------3311113333444488881111333344444-6---|
D|-44444~44-44444~44-44444~44-444444~---------------------------------------|

G|--------------------------------------------------------------------------|
D|--------------------------------------------------------------------------|
A|----------------------------------3311113333444488884444333-3333----------|
D|-44444~44-44444~44-44444~44-44444~-------------------------7----8888------|

G|--------------------------------------------------------------------------|
D|--------------------------------------------------------------------------|
G|----444----444----444----444----4443-111-1-1-1-1-1-1-1-1-1/16161616161616-|
D|-44----4-44---4-44---4-44---4-44-----------------------------------------7|

-Pre-chorus 2-
G|-------------------------|
D|-------------------------|
A|-----1/13----------------|
D|-11~------4444-4444-44---|

-Chorus 2-
G|----------------------------------------------------------------|
D|---------3-3-33-------------------------------------------------|
A|-4-4-44-4------31-1-11-11-1-11-1----------------------11--------|
D|--------------------------------4-4-44-43-3-33-31-1-11---8888---|

G|--------------------------------------------------------|
D|--------------------------------------------------------|
A|-44444444333333331111111111111111-----------------------|
D|---------------------------------4444444433333333-1~1---|

-Bridge 1-
G|-------------------------------------------------------------------|
D|-------------------------------------------------------------------|
A|-1-1-1-1-1-1-1-1-6-6-6-6-6-6-6-6-3-3-3-3-3-3-3-3----4~----3~-------|
D|------------------------------------------------4444--3333---------|

G|---------------------------------------------------------|
D|---------------------------------------------------------|
A|-1-1-1-1-1-1-1-1-6-6-6-6-6-6-6-3-3-3-3-3-3-3-3----4~-----|
D|----------------------------------------------4444--3----|

-Break-
G|--------------|
D|--------------|
A|--------------|
D|--------------|

-Pre-chorus 3-
G|-------|---------|
D|-------|---------|
A|-1-----|---------|
D|-------|-/44-----|

-Chorus 3-
G|----------------------------------------------------------------|
D|---------3-3-33-------------------------------------------------|
A|-4-4-44-4------31-1-11-11-1-11-1----------------------11--------|
D|--------------------------------4-4-44-43-3-33-31-1-11---8888---|

G|---------------------------------------------------|
D|---------------------------------------------------|
A|-4444444433333333----4~----3~----------------------|
D|-----------------4444--3333--4444444433333333-1~---|

-End-
G|------------------------------------|
D|------------------------------------|
A|-----------------111111-14~44-4-4---|
D|-444444-44~44-4-4-------------------|

G|---------------------------------|
D|---------------------------------|
A|----------------11111-13131313---|
D|-44444-44~44-4-4-----------------|
Suggest correction
Give kudos to tab author, rate the tab!
1 2 3 4 5
comments
print report bad tab
guest
You may want to rate the tab now too:
select rating
Wanna post a correction for this tab? Suggest correction