Oops, an error
Loading. Please wait.

Something Tab

version 2
version 2

Interactive

7,887 views 1 this week
2 commentsread comments
1 2 3 4 5
1 last vote to show rating
add to favorites
launch autoscroll
font size
0
reset
how to read this tab
guitar tuner
Autoscroll
slow
fast
+/-
esc
set tempo
stop
Help us to improve Ultimate-Guitar.com Take our survey!
×
Author

SOMETHING
ESCAPE THE FATE
THIS WAR IS OURZ

IT’S A EFFEN COOOL SONG U SHOULD LEARN FROM ESCAPE THE FATE
THIS TAB IS A SYSTEM THAT MAY HELP YOU….IT HAS WORDS TO GO WITH THE NOTES

SO PLEASE ENJOY AND COMMENT


Intro
Guitar 1
E|-------------------------------------------8-8h9---------------|
B|--6h7p6--6--6h7p6--7h9-9----6h7p6--6--6h7--x-x----9------------|
G|--6~-----6--6------6--------6------6--6----6-6----6------------|
D|---------------------------------------------------------------|
A|---------------------------------------------------------------|
D|---------------------------------------------------------------|
ONCE CLEAN THEN SOME DISTORTION WITH SEOND GUITAR


Guitar 1
E|-------------------------------------------8-8h9---------------|
B|--6h7p6--6--6h7p6--7h9-9----6h7p6--6--6h7--x-x----9------------|
G|--6~-----6--6------6--------6------6--6----6-6----6------------|
D|---------------------------------------------------------------|
A|---------------------------------------------------------------|
D|---------------------------------------------------------------| X2


Guitar 2
E|---------------------------------------------------------------|
B|---------------------------------------------------------------|
G|---------------------------------------------------------------|
D|--4-4--x-x--4-4-4--x-x--8-8--x-x--8-8-8--x-x-------------------|
A|--4-4--x-x--4-4-4--x-x--8-8--x-x--8-8-8--x-x-------------------|
D|--4-4--x-x--4-4-4--x-x--8-8--x-x--8-8-8--x-x-------------------| x2

E|----------|
B|----------|
G|----------|  Let it ring till the verse
D|----4-----|
A|----4-----|
E|----4-----|

Verse 1

Guitar 1

E|---------------------------------------------------------------|
B|-----------6---------------6---------------6-----------6-------|
G|-----6---6---6---6---6---6---6---6---6---6---6---6---6---6---6-|
D|---4---4-------4---4---4-------4---4---4-------4---4-------4---|
A|---------------------------------------------------------------|
D|---------------------------------------------------------------|

Words
     So now you are on it, its hard to see clearly, when I make you angry, your stuck


Guitar 2
 EACH NOTE DOWN HERE  LET IT RING
E|----------------------------------------------------------|
B|-----follow the words--^^^^^^^----------------------------|
G|----------------------------------------------------------|
D|----4-------------------------------------8---------------|
A|----4-------------------------------------8---------------|
D|----4-------------------------------------8---------------|



GUITAR 1

E|---------------------------------------------------------------|
B|-----------6---------------6---------------6-----------6-------|
G|-----6---6---6---6---6---6---6---6---6---6---6---6---6---6---6-|
D|---4---4-------4---4---4-------4---4---4-------4---4-------4---|
A|---------------------------------------------------------------|
D|--------TRY-TO-FOLLOW-WITH-WORDS-----UNDER-HERE----------------|


Words
In the past, and now your screaming, so can you forgive me, I treated you badly,  but I 
still here

Guitar 2
E|--------------------------------------------------------------------|
B|--------------------------------------------------------------------|
G|--------------------------------------------------------------------|
D|----4---------------------------------8-------------------------4-4-|
A|----4---------------------------------8-------------------------4-4-|
D|----4---------------------------------8-------------------------4-4-|
                                                                  * *

Interlude (with an auto wah effect with the parameter in minimum.)

Words
Sometimes I wonder why I am still waiting, sometimes im shaking ,that’s how make me

Both Guitars

E|---------------------------------------------------------------------|
B|-PALM MUTE-------------------PALM MUTE-------------------------------|
G|---------------------------------------------------------------------|
D|--4-------------------------------8------------------------------4-4-|
A|--4-(32x)-------------------------8-(32x)------------------------4-4-|
D|--4-------------------------------8------------------------------4-4-|
THESE NOTES ON THE INTERLUDE ARE ALL PALM MUTE EXCEPT THE LAST TWO NOTES

Words
  Sometimes I question why am I still here, sometimes I think im going crazy

Both Guitars

E|-----------------------------------------------------------------|
B|-PALM MUTE-------------------PALM MUTE---------------------------|
G|-----------------------------------------------------------------|
D|--4-------------------------------8------------------------------|
A|--4-(32x)-------------------------8-(32x)------------------------|
D|--4-------------------------------8------------------------------|
THESE NOTES ON THE INTERLUDE ARE ALL PALM MUTE

Pre-chorus

Words
     Can you help me one last timeeeeeeeeeeeeee ß------scream hard core

Both Guitars

E|--------------------------------------------------|
B|--------------------------------------------------|
G|--------------------------------------------------|
D|-1--1------------------4-4-4-4----4-4-4-4---------|
A|-1--1------------------4-4-4-4----4-4-4-4---------|
D|-1--1------------------4-4-4-4----4-4-4-4---------|


Chorus

Words

   And now you wish that you ment something , and now you wish that you meant something 
somebody else


E|-------------------------------------------------------------------|
B|-------------------------------------------------------------------|
G|-------------------------------------------------------------------|
D|-11-11-x-6-6--------8-8-x-8-8-x-4-4-x-3-3-x-x---8-8-x-6-6----------|
A|-11-11-x-6-6--------8-8-x-8-8-x-4-4-x-3-3-x-x---8-8-x-6-6----------|
D|-11-11-x-6-6--------8-8-x-8-8-x-4-4-x-3-3-x-x---8-8-x-6-6----------|

    And now you wish you ment someone, and now you wish that you ment something

E|-------------------------------------------------------------------|
B|-------------------------------------------------------------------|
G|-------------------------------------------------------------------|
D|-11-11-x-6-6-----8-8-x-8-8-x-4-4-x-3-3-x-x-------------8-----------|
A|-11-11-x-6-6-----8-8-x-8-8-x-4-4-x-3-3-x-x-------------8-----------|
D|-11-11-x-6-6-----8-8-x-8-8-x-4-4-x-3-3-x-x-------------8-----------|

    to somebody else………………………………. Something to somebody else,…………………………….. something to 
else


E|-------------------------------------------------------------------|
B|------------6H7P6H7P6--------------------6H7P6H7P6-----------------|
G|-------------------------------------------------------------------|
D|-------------------------------------------------------------------|
A|-------------------------------------------------------------------|
D|-------------------------------------------------------------------|


Verse 2

Both Guitars

Words
You look at me, through cloudy eyes, I no you see through my lies, see the sky,

E|--------------------------------------------------------------------|
B|-PALM MUTE------------------------------------PALM MUTE-------------|
G|--------------------------------------------------------------------|
D|--4-----------------------------------------------8-----------------|
A|--4-(32x)-----------------------------------------8-(32x)-----------|
D|--4-----------------------------------------------8-----------------|
Words
See the stars all of this could be ours,  out of sight out of mind,

E|--------------------------------------------------------------------|
B|--------------------------PALM MUTE---------------------------------|
G|--------------------------------------------------------------------|
D|------------------------------4-------------------------------------|
A|------------------------------4-(32x)-------------------------------|
D|------------------------------4-------------------------------------|

we been through this a thousand times  turn your back, then you make me feel so crazy

E|---------------------------------------------------------------------|
B|-------------------------PALM MUTE-----------------------------------|
G|---------------------------------------------------------------------|
D|----------------------------8-------------------8--8--8--8--8--8--8--|
A|----------------------------8-(32x)-------------8--8--8--8--8--8--8--|
D|----------------------------8-------------------8--8--8--8--8--8--8--|


Pre-chorus

Words
     Can you help me one last timeeeeeeeeeeeeee ß------scream hard core

Both Guitars

E|--------------------------------------------------|
B|--------------------------------------------------|
G|--------------------------------------------------|
D|-1--1------------------4-4-4-4----4-4-4-4---------|
A|-1--1------------------4-4-4-4----4-4-4-4---------|
D|-1--1------------------4-4-4-4----4-4-4-4---------|

Chorus

Words

   And now you wish that you ment something , and now you wish that you meant something 
somebody else


E|-------------------------------------------------------------------|
B|-------------------------------------------------------------------|
G|-------------------------------------------------------------------|
D|-11-11-x-6-6--------8-8-x-8-8-x-4-4-x-3-3-x-x---8-8-x-6-6----------|
A|-11-11-x-6-6--------8-8-x-8-8-x-4-4-x-3-3-x-x---8-8-x-6-6----------|
D|-11-11-x-6-6--------8-8-x-8-8-x-4-4-x-3-3-x-x---8-8-x-6-6----------|

    And now you wish you ment someone, and now you wish that you ment something to 
else……

E|-------------------------------------------------------------------|
B|-------------------------------------------------------------------|
G|-------------------------------------------------------------------|
D|-11-11-x-6-6-----8-8-x-8-8-x-4-4-x-3-3-x-x-------------8-----------|
A|-11-11-x-6-6-----8-8-x-8-8-x-4-4-x-3-3-x-x-------------8-----------|
D|-11-11-x-6-6-----8-8-x-8-8-x-4-4-x-3-3-x-x-------------8-----------|

Bridge

Words
      You know I will wait forever , cuz I will wait (x2)


Both Guitars

E|---------------------------------------------------------|
B|---------------------------------------------------------|
G|---------------------------------------------------------|
D|--8-----------13----------------10-------666---333-------| (x2)
A|--8--(x8)-----13-(x8)-----------10-(8X)--666---333-------|
D|--8-----------13----------------10-------666---333-------|

SORRY BUT COULDN’T FIGURE OUT THE KICK ASS SWEEP PICKING BUT I NOT ITS IN THE FRETS OF 
ALL STRINGS

QUIET PART….CHORUS 2
(IT USES HARMONICS IN SOME NOTES)

Chorus

Words

 And now you wish that you ment something , and now you wish that you meant


E|--------------8---8--9--13---13-----11--9--------------------------|
B|------6--9--6---6-----------9----9---------11----------------------|
G|----6----------------------------------------9-11-7~---------------|
D|-------------------------------------------------------------------|
A|-------------------------------------------------------------------|
D|-------------------------------------------------------------------|

HARDCORE DISTORCION
WORDS
   something to somebody else
e|------------|
b|------------|
g|------------|
d|--4---------|
a|--4---------|
D|--4---------|


Chorus 3

Words

   And now you wish that you ment someone , and now you wish that you meant something to 
else


E|-------------------------------------------------------------------|
B|-------------------------------------------------------------------|
G|-------------------------------------------------------------------|
D|-11-11-x-6-6--------8-8-x-8-8-x-4-4-x-3-3-x-x---8-8-x-6-6----------|
A|-11-11-x-6-6--------8-8-x-8-8-x-4-4-x-3-3-x-x---8-8-x-6-6----------|
D|-11-11-x-6-6--------8-8-x-8-8-x-4-4-x-3-3-x-x---8-8-x-6-6----------|

    And now you wish you ment something, and now you wish that you ment something

E|-------------------------------------------------------------------|
B|-------------------------------------------------------------------|
G|-------------------------------------------------------------------|
D|-11-11-x-6-6-----8-8-x-8-8-x-4-4-x-3-3-x-x-------------8-----------|
A|-11-11-x-6-6-----8-8-x-8-8-x-4-4-x-3-3-x-x-------------8-----------|
D|-11-11-x-6-6-----8-8-x-8-8-x-4-4-x-3-3-x-x-------------8-----------|


    to somebody else………………………………. Something to somebody else,…………………………….. something to 
else


E|-------------------------------------------------------------------|
B|------------6H7P6H7P6--------------------6H7P6H7P6-----------------|
G|-------------------------------------------------------------------|
D|-----------------------------------------------------8-8-8-8-X--8--|
A|-----------------------------------------------------8-8-8-8-X--8--|
D|-----------------------------------------------------8-8-8-8-X--8--|

I HOPE YOU LEARN THIS GREAT SONG….IF U DON’T UNDERSTAND MY SYSTEM…JUST KEEP ON PLAYING 
WITH THE SONG…THESE ARE RIGHT TABS
PLZ COMMENT
AND THANk
Suggest correction
Give kudos to tab author, rate the tab!
1 2 3 4 5
comments
print report bad tab
2 comments total.
+1 reply
WCTOABN 36 Dec 15, 2008 06:48 PM

This tab sucks. Everything is right except the parts that you didn't copy and paste from the other tab. Do it yourself next time.

+1 reply
Oli13Bishop 117 Dec 23, 2008 01:32 PM

even the bloody lyrics are wrong hah

guest
You may want to rate the tab now too:
select rating
Wanna post a correction for this tab? Suggest correction