Oops, an error
Loading. Please wait.

Something Bass Tab

version 3
version 3

Whole song

Interactive

771 views 1 this week
no commentswrite comment
1 2 3 4 5
please rate
add to favorites
launch autoscroll
font size
0
reset
guitar tuner
Autoscroll
slow
fast
+/-
esc
set tempo
stop
Help us to improve Ultimate-Guitar.com Take our survey!
×
Author
Difficulty
Tuning
novice
C G C F A D
Something - Escape The Fate
Drop C Tuning


Intro
F|-------------------------------------------------------------------|
C|-------------------------------------------------------------------|
G|---------------------------------3-3--3-3--3-3-3-6-6-6-------------|
C|--x-x----6-6--6-6--6-6-6--6-6--6-----------------------------------| x2

Verse
F|--------------------------------------------------------------------------|
C|--------------------------------------------------------------------------|
G|------------------------------------6-6-6---------------------------------|
C|--6-6--6-6--6-6-6--6-6--6-6--6-6-6----------------------------------------|

F|--------------------------------------------------------------------------|
C|--------------------------------------------------------------------------|
G|--3-3--3-3--3-3-3--3-3--3-3--3-3-3--6-6-6---------------------------------|
C|--------------------------------------------------------------------------|
^^ x2

Pre Chorus
F|--------------------------------------------------------------------------|
C|--------------------------------------------------------------------------|
G|--------------------------------10-10-10-10-10-10-10-10-------------------|
C|--6-6--6-6--6-6--6-6--6-6--6-6--------------------------------------------|

F|--------------------------------------------------------------------------|
C|--------------------------------------------------------------------------|
G|--3-3-3-3-3-3-3-3-3-3-3-3-3-6-6-6-6-6-6-6---------------------------------|
C|--------------------------------------------------------------------------|

F|--------------------------------------------------------------------------|
C|--------------------------------------------------------------------------|
G|--------------------------------10-10-10-10-10-10-10-10-------------------|
C|--6-6--6-6--6-6--6-6--6-6--6-6--------------------------------------------|

F|--------------------------------------------------------------------------|
C|--------------------------------------------------------------------------|
G|--3-3-3-3-3-3-3-3-3-3-3-3-3-5-5-5-5-6-6-6-6-8-8-8-8-10-10-10-10-----------|
C|----------------------------------------------------------------3-3~~~-6-6|

Chorus
F|--------------------------------------------------------------------------|
C|--------------------------------------------------------------------------|
G|--6-6-6-6-6/10-10-10-10\3-3-3-3--3-3-3-3----------------------------------|
C|--------------------------------------------------------------------------|

F|--------------------------------------------------------------------------|
C|--------------------------------------------------------------------------|
G|--------------------3-3-3-3-3-1-1-1-1-1-x-x-x-x---------------------------|
C|--6-6-6-6--5-5-5-5--------------------------------------------------------|

F|--------------------------------------------------------------------------|
C|--------------------------------------------------------------------------|
G|--6-6-6-6-6/10-10-10-10\3-3-3-3--3-3-3-3----------------------------------|
C|--------------------------------------------------------------------------|

F|--------------------------------------------------------------------------|
C|--------------------------------------------------------------------------|
G|--------------------------------------------------------------------------|
C|--6-6-6-6--5-5-5-5-3~~~~~~~~~---------------------------------------------|


Post Chorus
F|--------------------------------------------------------------------------|
C|--------------------------------------------------------------------------|
G|---------------------------------3-3-3-3-5-5-5-5-6-6-6-6-8-8-8-8----------|
C|-6-6-6-6-6-6-6-6-6-6-6-6-6-6-6-6------------------------------------------|

Verse x2 its the same except for 

F|--------------------------------------------------------------------------|
C|--------------------------------------------------------------------------|
G|--3-3-3-3-5-5-5-5-6-6-6-6-8-8-8-8-10-10-10-10-----------------------------|
C|--------------------------------------------------------------------------|

F|--------------------------------------------------------------------------|
C|--------------------------------------------------------------------------|
G|-10-10-10-10-8-8-8-8-6-6-6-6-5-5-5-5-3-3-3-3------------------------------|
C|--------------------------------------------------------------------------|

instead of
F|--------------------------------------------------------------------------|
C|--------------------------------------------------------------------------|
G|--3-3-3-3-3-3-3-3-3-3-3-3-3-6-6-6-6-6-6-6---------------------------------|
C|--------------------------------------------------------------------------|

Pre Chorus

F|--------------------------------------------------------------------------|
C|--------------------------------------------------------------------------|
G|--------------------------------------------------------------------------|
C|--3-3~~~~~~~~~~~~-6-6-6-6--6-6-6-6--6-6-x-x-------------------------------|

Chorus x2


Bridge
F|--------------------------------------------------------------------------|
C|--------------------------------------------------------------------------|
G|--3-3-3-3-3-3-3-3-8-8-8-8-8-8-8-8-6-6-6-6-6-6-6-66666~~~-55555~~~---------|
C|--------------------------------------------------------------------------|
^^ x2

F|--------------------------------------------------------------------------|
C|--------------------------------------------------------------------------|
G|--3x--1/12\1--------------------------------------------------------------|
C|--------------------------------------------------------------------------|

Chorus x2

Outro
F|-------------------------------------------------------------------|
C|-------------------------------------------------------------------|
G|---------------------------------3-3--3-3--3-3-3-6-6-6-------------|
C|-6-6--6-6--6-6-6--6-6--6-------------------------------------------| 

F|--------------------------------------------------------------------------|
C|--------------------------------------------------------------------------|
G|--------------------------3-3-3-3--3-3-3-3--------------------------------|
C|-6-6--6-6--6-6-6--6-6--6--------------------------------------------------|
Suggest correction
What's this?
You can suggest a correction to this tab. Community and Mods will review your correction and vote to approve or reject it.
comments
We did not receive enough feedback on this tab! Please rate:
print report bad tab
1 2 3 4 5
guest
You may want to rate the tab now too:
select rating
Please do not post tabs as comments. Select "correction" instead!