Oops, an error
Loading. Please wait.

Something Tab

version 3
version 3

Interactive

71,266 views 18 this week
12 commentsread comments
1 2 3 4 5
excellent!
x 16
add to favorites
launch autoscroll
font size
0
reset
how to read this tab
guitar tuner
Autoscroll
slow
fast
+/-
esc
set tempo
stop
Help us to improve Ultimate-Guitar.com Take our survey!
×
Author
This one is my quick submission tab.
The tabs i created isnt the exact one.
Hope u like it.
Negative comments are allowed but not as foul as bad.

Title: Something
Artist/Band: Escape The Fate
Albums: This War is Ours

Tuning: Drop D
Tabbed by: BK-201, Bloodline Production Philippines

============================================================================

Intro:

|----------------------------------------------------------------------------------|
|---------------------------------------------------------------------13-13-14-----|
|--10h11-10-10h11p10-10h11-10h11-11h13-13-13--10h11-10-10h11p10-10h11-x--x-----13--|
|--11----11-11-------11----11----11-----------11----11-11-------11----11-11----11--|
|----------------------------------------------------------------------------------|
|----------------------------------------------------------------------------------|

|----------------------------------------------------------------------------------|
|---------------------------------------------------------------------13-13-14-----| (x2)
|--10h11-10-10h11p10-10h11-10h11-11h13-13-13--10h11-10-10h11p10-10h11-x--x-----13--|
|--11----11-11-------11----11----11-----------11----11-11-------11----11-11----11--|
|----------------------------------------------------------------------------------|
|----------------------------------------------------------------------------------|

or

|--------------------------------------------|
|--------------6666--------------------------| (x2)
|--6666666666666666-10-(x8)-11-(x4)-10-(x4)--|
|--4444444444444444-8-------8-------8--------|
|--4444444444444444-8-------8-------8--------|
|--4444444444444444-8-------8-------8--------|

in rhythm (note: I've updated this one so that people won't get confused.)

|-------|    |------|
|-------|    |--7~--|
|--11~--| or |--6~--|
|--11~--|    |--4~--|
|--9~---|    |--4~--|
|-------|    |--4~--|

Verse:

|-------------------|
|------6--7---------| (x8)
|----6---6---6---6--|
|--4-----------4----|
|-------------------|
|-------------------|

|-------------------------------------|
|-------------------------------------| (x2)
|--6666666666666666-1010101010101010--|
|--4444444444444444-8888888888888888--|
|--4444444444444444-8888888888888888--|
|--4444444444444444-8888888888888888--|
   ................ ................

Pre-Chorus:

|---------------------------|
|---------------------------|
|---------------------------|
|--1-1~---4444-4444-xx-12/--|
|--1-1~---4444-4444-xx-12/--|
|--1-1~---4444-4444-xx-12/--|


Chorus:

|--------------------------------------------------------------------------|
|--------------------------------------------------------------------------|
|--66666666----------3333333333333333--------------------------------------|
|--66666666-33333333-3333333333333333-44444444-33333333-44444444-66666666--|
|--44444444-33333333-1111111111111111-44444444-33333333-44444444-66666666--|
|-----------33333333------------------44444444-33333333-44444444-66666666--|

|-----------------------------------------------------------|
|-----------------------------------------------------------|
|--66666666----------3333333333333333-----------------------|
|--66666666-33333333-3333333333333333-44444444-33333333-6~--|
|--44444444-33333333-1111111111111111-44444444-33333333-6~--|
|-----------33333333------------------44444444-33333333-6~--|

Pre-Verse:

|-------------------|
|------6---7--------| (x4)
|----6---6---6---6--|
|--4-----------4----|
|-------------------|
|-------------------|

Verse:

|-------------------------------------|
|-------------------------------------|
|-------------------------------------|
|--4444444444444444-8888888888888888--|
|--4444444444444444-8888888888888888--|
|--4444444444444444-8888888888888888--|
   ................ ................

|-------------------------------------|
|-------------------------------------|
|--6666666666666666-1010101010101010--|
|--4444444444444444-8888888888888888--|
|--4444444444444444-8888888888888888--|
|--4444444444444444-8888888888888888--|
   ................ ................

Pre-Chorus:


|---------------------------|
|---------------------------|
|---------------------------|
|--1-1~---4444-4444-xx-12/--|
|--1-1~---4444-4444-xx-12/--|
|--1-1~---4444-4444-xx-12/--|

Chorus:

|--------------------------------------------------------------------------|
|--------------------------------------------------------------------------|
|--66666666----------3333333333333333--------------------------------------|
|--66666666-33333333-3333333333333333-44444444-33333333-44444444-66666666--|
|--44444444-33333333-1111111111111111-44444444-33333333-44444444-66666666--|
|-----------33333333------------------44444444-33333333-44444444-66666666--|

|---------------------------------------------------------------|
|---------------------------------------------------------------|
|--66666666----------3333333333333333---------------------------|
|--66666666-33333333-3333333333333333-44444444-33333333-6~---6--|
|--44444444-33333333-1111111111111111-44444444-33333333-6~---6--|
|-----------33333333------------------44444444-33333333-6~---6--|


Bridge:

|---------------------------------------------------------------------|
|---------------------------------------------------------------------|
|---------------------------------------------------------------------|
|--8-8-8-8-8-8-8-8--6-6-6-6-6-6-6-6--3-3-3-3-3-3-3-3------4~------6~--|
|--8-8-8-8-8-8-8-8--6-6-6-6-6-6-6-6--3-3-3-3-3-3-3-3--44444~--66666~--|
|--8-8-8-8-8-8-8-8--6-6-6-6-6-6-6-6--3-3-3-3-3-3-3-3--44444~--66666~--|
                                                      ....    ....

|-----------------------------------------------------------------|
|-----------------------------------------------------------------|
|-----------------------------------------------------------------|
|--8-8-8-8-8-8-8-8--6-6-6-6-6-6-6-6--3-3-3-3-3-3-3-3------4~--6~--|
|--8-8-8-8-8-8-8-8--6-6-6-6-6-6-6-6--3-3-3-3-3-3-3-3--44444~--6~--|
|--8-8-8-8-8-8-8-8--6-6-6-6-6-6-6-6--3-3-3-3-3-3-3-3--44444~--6~--|
                                                      ....

Solo:
(not the exact solo, but will fit the song)

|------------8h12p8----------------8h12p8---------|
|----------10------10------------10------10-------|
|---------9----------9----------9----------9------|
|-------10------------10------10------------10----|
|-----12----------------12--12----------------12--|
|-------------------------------------------------|

|--------------9h13p9------------------9h13p9----------|
|------------11------11--------------11------11--------|
|----------10----------10----------10----------10------|
|--------11--------------11------11--------------11----|
|------13------------------13--13------------------13--|
|------------------------------------------------------|

|--------------11h15p11------------------11h15p11----------|
|------------13--------13--------------13--------13--------|
|----------12------------12----------12------------12------|
|--------13----------------13------13----------------13----|
|------15--------------------15--15--------------------15--|
|----------------------------------------------------------|

|----------------------|
|--------14/16-14-13~--|
|--13-11---------------|
|----------------------|
|----------------------|
|----------------------|

|---------------------------------------------------------------------|
|--------------13----13-14-16-------14------------11-13------10-11----|
|-----10-13-10----10----------14-13----13-11----11--------10----------|
|--11-----------------------------------------13--------11---------8--|
|------------------------------------------------------------------8--|
|------------------------------------------------------------------8--|

|--------|
|--------|
|--------|
|--xx8/--|
|--xx8/--|
|--xx8/--|

Last Chorus:

|--------------------------------------------------------------------------|
|--------------------------------------------------------------------------|
|--66666666----------3333333333333333--------------------------------------|
|--66666666-33333333-3333333333333333-44444444-33333333-44444444-66666666--|
|--44444444-33333333-1111111111111111-44444444-33333333-44444444-66666666--|
|-----------33333333------------------44444444-33333333-44444444-66666666--|

|--------------------------------------------------------|
|--------------------------------------------------------|
|--66666666----------------------------------------------|
|--66666666-33333333-----8~-----6~-44444444-33333333-6~--|
|--44444444-33333333-88888~-66666~-44444444-33333333-6~--|
|-----------33333333-88888~-66666~-44444444-33333333-6~--|
                     ....   ....

Outro:


|----------------------------------------------------------------------------------|
|---------------------------------------------------------------------13-13-14-----|
|--10h11-10-10h11p10-10h11-10h11-11h13-13-13--10h11-10-10h11p10-10h11-x--x-----13--|
|--11----11-11-------11----11----11-----------11----11-11-------11----11-11----11--|
|----------------------------------------------------------------------------------|
|----------------------------------------------------------------------------------|

or

|--------------------------------------------|
|--------------6666--------------------------|
|--6666666666666666-10-(x8)-11-(x4)-10-(x4)--|
|--4444444444444444-8-------8-------8--------|
|--4444444444444444-8-------8-------8--------|
|--4444444444444444-8-------8-------8--------|

then..

|-------------------------------------------------------|
|-------------------------------------------------------|
|--10h11-10-10h11p10-10h11-10h11-11h13-13-13------------|
|--11----11-11-------11----11----11----------8888-8888--|
|--------------------------------------------8888-8888--|
|--------------------------------------------8888-8888--|

The Solo part wasnt that good but worth trying.
Anyway, thanks.
Suggest correction
comments
print report bad tab
12 comments total. Showing first comments.
+1 reply
Grave_ARMS 31 wrote on January 29 2009, 10:27 pm

awww thank god, right chorus
the Pre-verse doesnt look that right i think, but 5*stars
nice tab

+1 reply
brokenunder 364 wrote on February 2 2009, 03:13 pm

nice tab dude! only thing is that the first chord of the chorus monte plays an octave down but it still sounds good (:

0 reply
Destamoon 92 wrote on February 14 2009, 02:00 am

good stuff, although i think your bass notes in your apreggio's are wrong

guest
You may want to rate the tab now too:
select rating
Please do not post tabs as comments. Select "correction" instead!