Oops, an error
Loading. Please wait.

Something Tab

version 5
version 5

Interactive

19,398 views 12 this week
2 commentsread comments
1 2 3 4 5
x 3
add to favorites
launch autoscroll
font size
0
reset
how to read this tab
guitar tuner
Autoscroll
slow
fast
+/-
esc
set tempo
stop
Help us to improve Ultimate-Guitar.com Take our survey!
×
Author
Tuning
C G C F A D
                             Something - Escape the Fate


Tabbed by:liamw. 
          Props to the person made the guitar pro version since i took a bit from it.


Tuning: Drop C

Intro I. x 1

Guitar 1
D|------------------------------------------------------10---10-11--------|
A|--8h9p8---8---8h9p8---9-11---11---11--8h9p8---8---8----------------11---|
F|--8-----8---8-------8------8----8-----8-----8---8---8----8-------8-8----|
C|------------------------------------------------------------------------|
G|------------------------------------------------------------------------|
C|------------------------------------------------------------------------|

Intro part II. x 2

Guitar 1
D|------------------------------------------------------10---10-11---------|
A|--8h9p8---8---8h9p8---9-11---11---11--8h9p8---8---8----------------------|
F|--8-----8---8-------8------8----8-----8-----8---8---8----8-------8-------|
C|-------------------------------------------------------------------------|
G|-------------------------------------------------------------------------|
C|-------------------------------------------------------------------------|

Guitar 2 
D|-------------------------------------------------------------------------|
A|-------------------------------------------------------------------------|
F|------------------------5-5--55--5-5555-5-5------------------------------|
C|--6-6--66-6-6--6666--6--5-5--55--5-5555-5-5------------------------------|
G|--6-6--66-6-6--6666--6--3-3--33--3-3333-3-3------------------------------|
C|--6-6--66-6-6--6666--6---------------------------------------------------|


Verse.
D|---------------------------------|
A|------------9--------------------|
F|-------8-------------------------|
C|----10---10-------8----8---------| x2
G|-11------------10---10-----------|
C|---------------------------------|

then

D|---------------------------------|
A|------------8--------------------|
F|-------8-------------------------|
C|----10---10-------8----8---------| x2
G|-10------------10---10-----------|
C|---------------------------------|

Repeat that whole part Once.


Verse part II.
D|------------------------------------------|
A|------------------------------------------|
F|------------------------5555555555555555--|
C|-----6666666666666666---5555555555555555--| x 2
G|-----6666666666666666---3333333333333333--|
C|-----6666666666666666---------------------|
    Pm|-----------------------------------|

Pre Chorus.
D|---------------------------|
A|---------------------------|
F|---------------------------|
C|--3-3---6666--6666--6------|
G|--3-3---6666--6666--6------|
C|--3-3---6666--6666--6------|


Chorus.
D|-------------------------------------------------------------------------|
A|-------------------------------------------------------------------------|
F|--8-8--88-----------5-5--55--5-5-5-5-55-------------------5-5-5-5-3-3-3-3|
C|--8-8--88--5-5--55--5-5--55--5-5-5-5-55--6-6--66--5-5-55--5-5-5-5-3-3-3-3 
G|--6-6--66--5-5--55--3-3--33--3-3-3-3-33--6-6--66--5-5-55--3-3-3-3-1-1-1-1|
C|-----------5-5--55-----------------------6-6--66--5-5-55-----------------|

D|----------------------------------------------------|
A|----------------------------------------------------|
F|--8-8--88-----------5-5--55--5-5-5-5-55-------------|
C|--8-8--88--5-5--55--5-5--55--5-5-5-5-55--6-6--66--5-| let ring
G|--6-6--66--5-5--55--3-3--33--3-3-3-3-33--6-6--66--5-|
C|-----------5-5--55-----------------------6-6--66--5-|

Break.
D|-----------|
A|--11--8~---|let ring
F|-----------| x 2
C|-----------|
G|-----------|
C|-----------|

Verse II. 
D|------------------------------------------|
A|------------------------------------------|
F|------------------------5555555555555555--|
C|-----6666666666666666---5555555555555555--| x 4
G|-----6666666666666666---3333333333333333--|
C|-----6666666666666666---------------------|
    Pm|-----------------------------------|


Pre Chorus.

Chorus.

Bridge.
D|-------------------------------------------------------------------------|
A|-------------------------------------------------------------------------|
F|--5-5--55-5-5--55------------------------------------------8-------7-----|
C|--5-5--55-5-5--55--3-3--33-3-3--33--0-0--00--0-0--00--1111-8--0000-7-----|
G|--3-3--33-3-3--33--3-3--33-3-3--33--0-0--00--0-0--00--1111-6--0000-5-----|
C|-------------------3-3--33-3-3--33--0-0--00--0-0--00--1111----0000-------|


Sweep.  

Gtr 1                 T                                   T
D|--------------11h15-20-15p11----------------------11h15-20-15p11---------|
A|-----------13----------------13----------------13----------------13------|
F|--------12----------------------12----------12----------------------12---|
C|-----13----------------------------13----13---------------------------13-|
G|--15----------------------------------15---------------------------------|
C|-------------------------------------------------------------------------|

                      T                                   T
D|--------------11h16-18-16p11----------------------11h16-18-16p11---------|
A|-----------13----------------13----------------13----------------13------|
F|--------12----------------------12----------12----------------------12---|
C|-----13----------------------------13----13----------------------------13|
G|--15----------------------------------15---------------------------------|
C|-------------------------------------------------------------------------|



D|--------------11h13h15p13p11----------------------11h13h15p13p11---------|
A|-----------15----------------15----------------15----------------13------|
F|--------15----------------------15----------15----------------------13---|
C|-----15----------------------------15----15----------------------------13|
G|--13----------------------------------13---------------------------------|
C|-------------------------------------------------------------------------|


D|------------------------|
A|-----------18-16--15~---|
F|-----12-15--------------|
C|--13--------------------|
G|------------------------|
C|------------------------|

Gtr 2 Plays Bridge behind sweep.

Clean Part.
D|-------------------------------------9------8--6-----6-----|
A|-----------------------8------------------9--------8-------|
F|-------------------------7-8--7----7----8--------8-----5---|
C|---8----8----9----9------------------------------------5---|
G|-----10---10---10---10----------10---------------------3---|
C|-----------------------------------------------------------|


Chorus. x1

Chorus/End Sweep.
D|---------------------------11-15p11------------------10-13p10-----------|
A|-------------------------13--------13--------------11--------11---------|
F|--8-8-88---------------12------------12----------10------------10-------|
C|--8-8-88-5-5-55------13----------------13------11----------------11-----|
G|--6-6-66-5-5-55----15------------------------13-------------------------|
C|---------5-5-55---------------------------------------------------------|

Intro.


Done :)
Suggest correction
Give kudos to tab author, rate the tab!
1 2 3 4 5
comments
print report bad tab
2 comments total.
0 reply
XxSensesFailxXx 10 Mar 29, 2010 09:31 PM

good tab dude... i like it alot =)

0 reply
Etaliyx 10 Jan 11, 2014 10:41 PM

If only i was batter at Sweeppicking , Sigh '

guest
You may want to rate the tab now too:
select rating
Wanna post a correction for this tab? Suggest correction