Oops, an error
Loading. Please wait.

Something Tab

version 7
version 7

Interactive

2,986 views 1 this week
no commentswrite comment
1 2 3 4 5
please rate
add to favorites
launch autoscroll
font size
0
reset
how to read this tab
guitar tuner
Autoscroll
slow
fast
+/-
esc
set tempo
stop
Help us to improve Ultimate-Guitar.com Take our survey!
×
Author
Difficulty
Tuning
ps7115 43
intermediate
C G C F A D
Escape the fate -something
Tuning: Drop C
hi guys made this tab because lots of the other tabs for this song are wrong
but made sure and this is 100% right (thanks for the sweeps ross123)
Intro I. x 1
DISTORTION
  I
D]------------------------------------------------------10---10-11--------]
A]--8h9p8---8---8h9p8---9-11---11---11--8h9p8---8---8----------------11---]
F]--8-----8---8-------8------8----8-----8-----8---8---8----8-------8-8----] 
C]------------------------------------------------------------------------]
G]------------------------------------------------------------------------]
C]------------------------------------------------------------------------]

Intro part II. x 2

  II
D]------------------------------------------------------10---10-11---------]
A]--8h9p8---8---8h9p8---9-11---11---11--8h9p8---8---8----------------------]
F]--8-----8---8-------8------8----8-----8-----8---8---8----8-------8-------]
C]-------------------------------------------------------------------------]
G]-------------------------------------------------------------------------]
C]-------------------------------------------------------------------------]

CLEAN
Verse.
D]---------------------------------]
A]------------9--------------------]
F]-------8-------------------------]
C]----10---10-------8----8---------] x2
G]-11------------10---10-----------]
C]---------------------------------]

then

D]---------------------------------]
A]------------8--------------------]
F]-------8-------------------------]
C]----10---10-------8----8---------] x2
G]-10------------10---10-----------]
C]---------------------------------]

DISTORTION
PRE CHORAS
D] --------------------------------]
A] --------------------------------]
F]---------------------------------]
C]-----10-10-10-10-10 LOTS OF TIMES] X2
G]-6-6-----------------------------]
C]-6-6-----------------------------]



D]----------------------------]
A]----------------------------]
F]----------------------------]
C]-3-3---6-6-6-6—-6-6-6-6—-6-X]
G]-3-3---6-6-6-6—-6-6-6-6—-6-X]
C]-3-3---6-6-6-6—-6-6-6-6—-6-X]

CHOURS

D]--------------------------------------------------------------------------
A]--------------------------------------------------------------------------
F]-8-8-8-8-----------5-5-55-5--5-5-55-5-------------------------------------
C]-8-8-8-8—-5-5-5-5—-5-5-55-5--5-5-55-5—-6-6-6-6-5-5-5-5-10-10-10-10-8-8-8-8
G]-6-6-6-6—-5-5-5-5—-3-3-33-3—-3-3-33-3—-6-6-6-6-5-5-5-5-10-10-10-10-8-8-8-8
C]----------5-5-5-5----------------------6-6-6-6-5-5-5-5—10-10-10-10-8-8-8-8

D]-----------------------------------------------------------------]
A]-----------------------------------------------------------------]
F]-8-8-8-8-----------5-5-5-5--5-5-5-5------------------------------]
C]-8-8-8-8—-5-5-5-5—-5-5-5-5--5-5-5-5—-6-6-6-6-5-5-5-5—-10---------]
G]-6-6-6-6—-5-5-5-5—-3-3-3-3—-3-3-3-3—-6-6-6-6-5-5-5-5—-10~LET RING]
C]----------5-5-5-5--------------------6-6-6-6-5-5-5-5—-10---------]



CLEAN
D]-----------]
A]--11--8~---]LET RING
F]-----------] x 2
C]-----------]
G]-----------]
C]—----------]


DISTORTION
PRE CHORAS
D] --------------------------------]
A] --------------------------------]
F]---------------------------------]
C]-----10-10-10-10-10 LOTS OF TIMES] X2
G]-6-6-----------------------------]
C]-6-6-----------------------------]


D]----------------------------]
A]----------------------------]
F]----------------------------]
C]-3-3---6-6-6-6—-6-6-6-6—-6-X]
G]-3-3---6-6-6-6—-6-6-6-6—-6-X]
C]-3-3---6-6-6-6—-6-6-6-6—-6-X]


CHOURS

D]--------------------------------------------------------------------------
A]--------------------------------------------------------------------------
F]-8-8-8-8-----------5-5-55-5--5-5-55-5-------------------------------------
C]-8-8-8-8—-5-5-5-5—-5-5-55-5--5-5-55-5—-6-6-6-6-5-5-5-5-10-10-10-10-8-8-8-8
G]-6-6-6-6—-5-5-5-5—-3-3-33-3—-3-3-33-3—-6-6-6-6-5-5-5-5-10-10-10-10-8-8-8-8
C]----------5-5-5-5----------------------6-6-6-6-5-5-5-5—10-10-10-10-8-8-8-8



D]-----------------------------------------------------------------]
A]-----------------------------------------------------------------]
F]-8-8-8-8-----------5-5-5-5--5-5-5-5------------------------------]
C]-8-8-8-8—-5-5-5-5—-5-5-5-5--5-5-5-5—-6-6-6-6-5-5-5-5—-10---------]
G]-6-6-6-6—-5-5-5-5—-3-3-3-3—-3-3-3-3—-6-6-6-6-5-5-5-5—-10~LET RING]
C]----------5-5-5-5--------------------6-6-6-6-5-5-5-5—-10---------]


D]------------------------------]
A]------------------------------]
F]------------------------------]
C]-10—-10-10-10-10--10-10-10-10-]
G]-10—-10-10-10-10--10-10-10-10-]
C]-10—-10-10-10-10--10-10-10-10-]

D]-------------]            D]---------]
A]-------------]            A]---------]
F]-------------]            F]---------]
C]-10-10-10-10-]   X2       C]-7-7-7-7-] X2
G]-10-10-10-10-]            G]-7-7-7-7-]
C]-8—-8—-8—-8--]            C]-5-5-5-5-]
D]----------------------]
A]----------------------]
F]----------------------]
C]---------8----------7-]
G]-1-1-1-1-8—-0-0-0-0-7-]
C]-1-1-1-1-8—-0-0-0-0-7-]
   . . . .    . . . .                  



                  T
D]---------11-15-20-15-11----------------]
A]-------13--------------13--------------]
F]-----12------------------12------------] x2
C]---13----------------------13----------]
G]-15--------------------------15--------]
C]---------------------------------------]


                  T
D]---------11-16-18-16-11----------------]
A]-------13--------------13--------------]
F]-----12------------------12------------] x2
C]---13----------------------13----------]
G]-15--------------------------15--------]
C]---------------------------------------]

D]---------11-13-15-13-11----------------]
A]-------15--------------15--------------]
F]-----15------------------15------------] x2
C]---15----------------------15----------]
G]-13--------------------------13--------]
C]---------------------------------------]


D]------------------------]
A]---------18-16----15----]
F]------15----------------]
C]----17------------------]
G]-18---------------------]
C]------------------------]


Clean Part.
D]-------------------------------------9------8--6-----6-----]
A]-----------------------8------------------9--------8-------]
F]-------------------------7-8--7----7----8--------8-----5---]
C]---8----8----9----9------------------------------------5---]
G]-----10---10---10---10----------10---------------------3---]
C]-----------------------------------------------------------]



D]--------------------------------------------------------------------------
A]--------------------------------------------------------------------------
F]-8-8-8-8-----------5-5-55-5--5-5-55-5-------------------------------------
C]-8-8-8-8—-5-5-5-5—-5-5-55-5--5-5-55-5—-6-6-6-6-5-5-5-5-10-10-10-10-8-8-8-8
G]-6-6-6-6—-5-5-5-5—-3-3-33-3—-3-3-33-3—-6-6-6-6-5-5-5-5-10-10-10-10-8-8-8-8
C]----------5-5-5-5----------------------6-6-6-6-5-5-5-5—10-10-10-10-8-8-8-8



D]------------------]
A]------------------]
F]-8-8-8-8----------]
C]-8-8-8-8—-5-5-5-5-]
G]-6-6-6-6—-5-5-5-5-]
C]----------5-5-5-5-]





/End Sweep.                                                            
D]-----------11-15p11------------------10-13p10-----------]
A]---------13--------13--------------11--------11---------]
F]-------12------------12----------10------------10-------]
C]-----13----------------13------11----------------11-----]
G]---15------------------------13-------------------------]
C]--------------------------------------------------------]




D]------------------------------------------------------10---10-11--------]
A]--8h9p8---8---8h9p8---9-11---11---11--8h9p8---8---8----------------11---]
F]--8-----8---8-------8------8----8-----8-----8---8---8----8-------8-8----] 
C]------------------------------------------------------------------------]
G]------------------------------------------------------------------------]
C]------------------------------------------------------------------------]


 
D]-------------------------------------------------------------------------]
A]--8h9p8---8---8h9p8---9-11---11---11-------------------------------------]
F]--8-----8---8-------8------8----8----------------------------------------]
C]-------------------------------------------------------------------------]
G]-------------------------------------------------------------------------]
C]-------------------------------------------------------------------------]


END

h=hammer on
p=pull off
/=slide
x=dead note
T=tapping
~=let ring
Suggest correction
What's this?
You can suggest a correction to this tab. Community and Mods will review your correction and vote to approve or reject it.
comments
We did not receive enough feedback on this tab! Please rate:
print report bad tab
1 2 3 4 5
guest
You may want to rate the tab now too:
select rating
Please do not post tabs as comments. Select "correction" instead!