Oops, an error
Loading. Please wait.

The Aftermath G3 Bass Tab

version 1
version 1

Whole song

Interactive

2,459 views 1 this week
no commentswrite comment
1 2 3 4 5
3 more votes to show rating
add to favorites
launch autoscroll
font size
0
reset
guitar tuner
Autoscroll
slow
fast
+/-
esc
set tempo
stop
Help us to improve Ultimate-Guitar.com Take our survey!
×
Author
Tuning
C G C F A D

                   Escape The Fate : The Aftermath

                           (Drop C)



Intro
Play along with the bass of the drums 



Verse Rhtym
F|--------------------------------------------------------|
C|--------------------------------------------------------|
G|--------------------------------------------------------|
C|-000000000-----000000000-----222222222-----222222222----|x2
PRECHORUS
F|-------------------------------|
C|-------------------------------|
G|-------------------------------|
C|-0-0-0---0-0-0---0-0-0---0-0-0-|

F|-----------------------------------------------------------------|
C|-----------------------------------------------------------------|
G|-----------------------------------------------------------------|
C|-22222222222222222222---------------------22222222222222222222---|

F|----------------------------------------------------------------------------------|
C|----------------------------------------------------------------------------------|
G|----------------------------------------------------------------------------------|
C|-00000000000000000000-----------------------------00000-22222-333-555555555555555-|

CHORUS RHYTHM
F|-----------------------------------------------------------|
C|-----------------------------------------------------------|
G|-----------------------------------------------------------|
C|-000000000000-222222222222-333333333333-555555555555-99999-|

Verse Rhtym
F|--------------------------------------------------------|
C|--------------------------------------------------------|
G|--------------------------------------------------------|
C|-000000000-----000000000-----222222222-----222222222----|x2
PRECHORUS
F|-------------------------------|
C|-------------------------------|
G|-------------------------------|
C|-0-0-0---0-0-0---0-0-0---0-0-0-|
CHORUS RHYTHM
F|-----------------------------------------------------------|
C|-----------------------------------------------------------|
G|-----------------------------------------------------------|
C|-000000000000-222222222222-333333333333-555555555555-99999-| 
the second time play not the 9's
OHHHHHHHHHHHHHHHHHHHHHHHHHHHHHHHHHHHHHHHHHHHHHHH..." 
F|-----------------|
C|-----------------|
G|-----------------|
C|-0-0-------------|


F|-----------------|
C|-0-0-------------|
G|-0-0-------------|
C|-0-0-------------|  


F|-----------------|-----------------|-----------------|-----------------|
C|-----------------|-----------------|-----------------|-----------------|
G|-----------------|-----------------|-----------------|-----------------|  
C|-0-0-------------|-----------------|-0-0---------0-0-|-----------------|


F|-----------------|-----------------|-----------------|-----------------|
C|-----------------|-----------------|-----------------|-----------------|
G|-----------------|-----------------|-----------------|-----------------|  
C|-0-0---------0-0-|-----------------|-----------------|-----------------|

"THIS IS THE LAST TIME I..."

F|-----------------|-----------------|-----------------|-----------------|
C|-----------------|-----------------|-----------------|-----------------|
G|-000000000000000-|-000000000000000-|-222222222222222-|-222222222222222-|  
C|-----------------|-----------------|-----------------|-----------------|

F|-----------------|-----------------|-----------------|-----------------|
C|-----------------|-----------------|-----------------|-----------------|
G|-333333333333333-|-333333333333333-|-222222222222222-|-222222222222222-|  
C|-----------------|-----------------|-----------------|-----------------|



F|-----------------|-----------------|-----------------|-----------------|
C|-----------------|-----------------|-----------------|-----------------|
G|-000000000000000-|-000000000000000-|-222222222222222-|-222222222222222-|  
C|-----------------|-----------------|-----------------|-----------------|


F|-----------------|-----------------|-----------------|-----------------|---|
C|-----------------|-----------------|-----------------|-----------------|---|
G|-333333333333333-|-333333333333333-|-555555555555555-|-555555555555555-|-5-|  
C|-----------------|-----------------|-----------------|-----------------|---|

SOLO RHYTHM

F|-----------------|-----------------|-----------------|-----------------|
C|-----------------|-----------------|-----------------|-----------------|
G|-----------------|-----------------|-----------------|-----------------| 
C|-000000000000000-|-000000000000000-|-000000000000000-|-000000000000000-|

F|-----------------|-----------------|-----------------|-----------------|
C|-----------------|-----------------|-----------------|-----------------|
G|-----------------|-----------------|-----------------|-----------------|
C|-222222222222222-|-222222222222222-|-222222222222222-|-222222222222222-|

F|-----------------|-----------------|-----------------|-----------------|
C|-----------------|-----------------|-----------------|-----------------|
G|-----------------|-----------------|-----------------|-----------------| 
C|-000000000000000-|-000000000000000-|-000000000000000-|-000000000000000-|




F|-----------------|-----------------|-----------------|-----------------|
C|-----------------|-----------------|-----------------|-----------------|
G|-----------------|-----------------|-----------------|-----------------|
C|-222222222222222-|-222222222222222-|-222222222222222-|-222222222222222-|

F|-------------------------------|
C|-------------------------------|
G|-------------------------------|
C|-0-0-0---0-0-0---0-0-0---0-0-0-| 

F|-----------------------------------------------------------------|
C|-----------------------------------------------------------------|
G|-----------------------------------------------------------------|
C|-22222222222222222222---------------------22222222222222222222---|

F|-----------------------------------------------------------------|
C|-----------------------------------------------------------------|
G|-----------------------------------------------------------------|
C|-00000000000000000000----------------------000000000000000000----|

F|-----------------------------------------------------------------|
C|-----------------------------------------------------------------|
G|-----------------------------------------------------------------|
C|-22222222222222222222---------------------22222222222222222222---|

F|-----------------------------------------------------------------|
C|-----------------------------------------------------------------|
G|-----------------------------------------------------------------|
C|-00000000000000000000----------------------000000000000000000----|

F|----------------------------------------------------------------------------------|
C|----------------------------------------------------------------------------------|
G|----------------------------------------------------------------------------------|
C|-00000-22222-333-555555555555555------------------00000-22222-333-555555555555555-|
CHORUS RHYTHM
F|-----------------------------------------------------------|
C|-----------------------------------------------------------|
G|-----------------------------------------------------------|
C|-000000000000-222222222222-333333333333-555555555555-99999-| 
the second time play not the 9's but end on the 3 
Suggest correction
Give kudos to tab author, rate the tab!
1 2 3 4 5
comments
print report bad tab
guest
You may want to rate the tab now too:
select rating
Wanna post a correction for this tab? Suggest correction