Oops, an error
Loading. Please wait.

The Aftermath G3 Tab

version 1
version 1

Solo

Whole song

Interactive

2,491 views 6 this week
no commentswrite comment
1 2 3 4 5
excellent!
x 5
add to favorites
launch autoscroll
font size
0
reset
how to read this tab
guitar tuner
Tab Pro tools
  • play this tab
  • loop segment
  • change instrument
  • show fretboard
  • metronome
×
Best way to learn
"The Aftermath G3"
Autoscroll
slow
fast
+/-
esc
set tempo
stop
Contributor
Difficulty
Tuning
advanced
C G C F A D
Tuning: Drop C


e|------------------------------------------------------------|
b|------------------------------------------------ -------10~-|
g|--7h9p7---10p9p7--------------------------------9h10h12-----|
d|-----------------10p8p7-----------------8h10h12-------------|
a|-----------------------10p8p7---8h10h12---------------------|
E|------------------------------------------------------------|

e|------------------(tremolo pick these)-----------------|
b|--10-7-9---12-9-10---14-10-12---15-12-14---------------|
g|-------------------------------------------------------|
d|-------------------------------------------------------|
a|-------------------------------------------------------|
E|-------------------------------------------------------|

e|--13p10------13/15p12------15/17p13------13-13-13-13-13-12-12-12-12-12-|
b|-------11--11--------13--13--------15--15------------------------------|
g|---------10------------12------------14--------------------------------|
d|-----------------------------------------------------------------------|
a|-----------------------------------------------------------------------|
E|-----------------------------------------------------------------------|

e|---------------------------------------------------------|
b|--13p11p10--------11p10p8-------10p8p6------10b12(r10)---|
g|----------12p10p9--------10p9p7--------9p7h9-------------|
d|---------------------------------------------------------|
a|---------------------------------------------------------|
E|---------------------------------------------------------|

e|-13p10-13p10------------13p10-13p10------------13p10-13p10-------------------|
b|------------13p10-13p10-------------13p10-13p10-----------13p10-13p10--13/15-|
g|-----------------------------------------------------------------------------|
d|-----------------------------------------------------------------------------|
a|-----------------------------------------------------------------------------|
E|-----------------------------------------------------------------------------|

e|--------------------15b16---13h15p13--12h13p12\10--12b14r12--|
b|-----------15h17h18------------------------------------------|
g|--14h15h17---------------------------------------------------|
d|-------------------------------------------------------------|
a|-------------------------------------------------------------|
E|-------------------------------------------------------------|

e|--12-13-12-10---------------------------------------------------|
b|--------------13-11-10----10-11-10------------------------------|
g|-----------------------12----------12-10-9----9-10-9------------|
d|-------------------------------------------12------12-10-9-8b9~-|
a|----------------------------------------------------------------|
E|----------------------------------------------------------------|

e|--------------------------------------------------------------|
b|----(4x)-----------(4x)----------(4x)-------------(4x)--------|
g|-7p3t7p3t7p3---9p5t9p5t9p5---10p7t10p7t10p---12p9t12p9t12p9---|
d|--------------------------------------------------------------|
a|--------------------------------------------------------------|
E|--------------------------------------------------------------|

e|---------------------------------------|
b|-------------------5-6-8---6-8-10------|
g|--5-7-9---7-9-10-----------------------|
d|---------------------------------------|
a|---------------------------------------|
E|---------------------------------------|

e|-----------------------------------------|
b|-----------------------------------------|
g|---------------------------------7h9h10--|
d|-------------5h7h8--------7h8h10---------|
a|-------5h7h8-------7h8h10----------------|
E|-5h7h8-----------------------------------|

e|-------------------------------------------10h12h13--|
b|-----------------8h10h11----------10h11h13-----------|
g|---------9h10h12---------10h12h14--------------------|
d|-8h10h12---------------------------------------------|
a|-----------------------------------------------------|
E|-----------------------------------------------------|

e|--17(8x)--15(8x)--12(8x)--13-12--------------|
b|---------------------------------------------|
g|---------------------------------------------|
d|---------------------------------------------|
a|---------------------------------------------|
E|---------------------------------------------|

e|--17p13----------13h18p13------------15h20p15------------------------------|
b|-------15----15----------15----15-------------17----------------17---------|
g|----------14----------------14-------------------17----------17----17------|
d|----------------------------------------------------17----17----------17---|
a|-------------------------------------------------------19------------------|
E|---------------------------------------------------------------------------|

e|-17p13----------13h18p13----------13h20p15----------15-20v-----|
b|-------15----15----------15----15----------17----17------------|
g|----------14----------------14----------------17---------------|
d|---------------------------------------------------------------|
a|---------------------------------------------------------------|
E|---------------------------------------------------------------|

Echo on-

e|---------------------------------------------------------10----12----13-|
b|---------------------------------------------------11-------------------|
g|-------9-10-9----------9-10-9----------9-10-9-10-9----10----10----10----|
d|-----8-------10-8----8-------10-8----8----------------------------------|
a|-5-8-------------5-8-------------5-8------------------------------------|
E|------------------------------------------------------------------------|


e|-17p13----13p12---13p12----12-12-13-15--17p13---13p12---13p12---12-12-13-15-|
b|------15-------15------15--------------------15------15------15-------------|
g|--------14-------14------14--------------------14------14------14-----------|
d|----------------------------------------------------------------------------|
a|----------------------------------------------------------------------------|
E|----------------------------------------------------------------------------|

e|--17-17-17-13-13-13-15-15-15-12-12-12-13-12-10--|
b|------------------------------------------------| (X2)
g|------------------------------------------------|     
d|------------------------------------------------|     
a|------------------------------------------------|
E|------------------------------------------------|

e|-10-10-10-12-12-12-13-13-13-17-17-17-20-20-20-20-20b22-|
b|-------------------------------------------------------|
g|-------------------------------------------------------|
d|-------------------------------------------------------|
a|-------------------------------------------------------|
E|-------------------------------------------------------|

e|-20b22-15-15b17--------------|
b|----------------17-17b19-15--|
g|-----------------------------|
d|-----------------------------|
a|-----------------------------|
E|-----------------------------|
comments
print report bad tab
I want to post or [tab]
guest
You may want to rate the tab now too:
select rating
Please do not post tabs as comments. Select "correction" instead!