Oops, an error
Loading. Please wait.

The Aftermath G3 Tab

version 2
version 2

Solo

Whole song

Interactive

5,190 views 3 this week
1 commentread comment
1 2 3 4 5
accurate
x 5
add to favorites
launch autoscroll
font size
0
reset
how to read this tab
guitar tuner
Tab Pro tools
  • play this tab
  • loop segment
  • change instrument
  • show fretboard
  • metronome
Autoscroll
slow
fast
+/-
esc
set tempo
stop
Contributor
Difficulty
Tuning
intermediate
C G C F A D
This took me awhile to get so it may still not be accurate but leave comments and 
tel me of any changes

Band: Escape the Fate
Song: The Aftermath (G3)
Tuning: CGCFAD

Intro- Guitar 1
|--------------------------------------------------------------------------|
|--------------------------------------------------------------------------|
|-----7---5-7-5--7\9--7-9-7---9\10---9-10-12-9--7-9-10---------------------|
|--------------------------------------------------------------------------|
|--------------------------------------------------------------------------|
|--------------------------------------------------------------------------|

*Tremlo pick all of these(Listen to the song for clarity)
|--------------------------------------------------------------------------|
|--------------------------------------------------------------------------|
|---10-12-14-----12-14-15------14-15-17---15-17-19----19b with tremlo------|
|--------------------------------------------------------------------------|
|--------------------------------------------------------------------------|
|--------------------------------------------------------------------------|

Verse-Guitar 1
|-------------------------------------------------------------|
|-------------------------------------------------------------|
|-------------------------------------------------------------|
|--0000-0--------------0000-0----------8888-8/------8888-8/---|
|--0000-0--------------0000-0----------8888-8/------8888-8/---|
|--0000-0--------------0000-0----------8888-8/------8888-8/---|

*Second part of the verse(pick very fast) play 4 times
|------------------------------------------------------------------------|
|------------------------------------------------------------------------|
|------------------------------------------------------------------------|
|10-10-10-10-10-10-10-10-12-10-10-10-10-14-10-10-10-10-10-10-12-10-10-14-|
|------------------------------------------------------------------------|
|------------------------------------------------------------------------|

|--------------------|
|--------------------|
|--------------------|
|--10-10-12-10-10-14-|
|--------------------|
|--------------------|

Bridge- Guitar 1
|------------------|
|------------------|
|------------------|
|--000-000-000-000-|
|--000-000-000-000-|
|--000-000-000-000-|

Pre-Chorus- Guitar 1
|------------------------------------------------------------------|
|------------------------------------------------------------------|
|--------------10-10-10-10-9-9-9----------------10-10-10-10-9-9-9--|
|-888-8-8-8-8--x--x--x--x--x-x-x---888-8-8-8-8--x--x--x--x--x-x-x--|
|-888-8-8-8-8--8--8--8--8-/7-7-7---888-8-8-8-8--8--8--8--8-/7-7-7--|
|-888-8-8-8-8----------------------888-8-8-8-8---------------------|

                {bend slighty}
|--------------------------------------------------|
|--------------------------------------------------|
|---------------14-14-14-14-14---------------------|
|-000-0-0-0-0---x--x--x--x--x----0002223335555555--|
|-000-0-0-0-0---12-12-12-12-12---0002223335555555--|
|-000-0-0-0-0--------------------0002223335555555--|

Chorus- Guitar 1
|-----------------------------------------------------------------------|
|-----------------------------------------------------------------------|
|-----------------------------------------------------------------------|
|-88-888-888-8888\10-10--10-10-10--10-10-10--10-10-10-10-10x-00-000-0-0-|
|-88-888-888-8888\10-10--10-10-10--10-10-10--10-10-10-10-10x-00-000-0-0-|
|-88-888-888-8888\10-10--10-10-10--10-10-10--10-10-10-10-10x-00-000-0-0-|

|-------------------------------------------------------------|
|-------------------------------------------------------------|
|------------------14p12--14p12--14p12--------12-14-15-14-----|
|-77--77-7--------------12-----12-----12-14-15------------15--|
|-77--77-7-8-8-8-8--------------------------------------------|
|-77--77-7----------------------------------------------------|

|------------------------------------------------------------------------|
|------------------------------------------------------------------------|
|-12p10--12p10--12p10---------10-12-14-12---10-9-7-10-9-7-10-9-12-10-9-7-|
|------10-----10------10-12-14-----------14------------------------------|
|------------------------------------------------------------------------|
|------------------------------------------------------------------------|

|------------------------------|
|------------------------------|
|-12-10-9-12-10-9-12-10-15-14--|
|------------------------------|
|------------------------------|
|------------------------------|


Verse 2-Guitar 1
|-------------------------------------------------------------|
|-------------------------------------------------------------|
|-------------------------------------------------------------|
|--0000-0--------------0000-0----------8888-8/------8888-8/---|
|--0000-0--------------0000-0----------8888-8/------8888-8/---|
|--0000-0--------------0000-0----------8888-8/------8888-8/---|

*Second part of the verse(pick very fast) play 4 times
|------------------------------------------------------------------------|
|------------------------------------------------------------------------|
|------------------------------------------------------------------------|
|10-10-10-10-10-10-10-10-12-10-10-10-10-14-10-10-10-10-10-10-12-10-10-14-|
|------------------------------------------------------------------------|
|------------------------------------------------------------------------|

|--------------------|
|--------------------|
|--------------------|
|--10-10-12-10-10-14-|
|--------------------|
|--------------------|

Bridge 2- Guitar 1
|------------------|
|------------------|
|------------------|
|--000-000-000-000-|
|--000-000-000-000-|
|--000-000-000-000-|

Pre-Chorus2 - Guitar 1
|------------------------------------------------------------------|
|------------------------------------------------------------------|
|--------------10-10-10-10-9-9-9----------------10-10-10-10-9-9-9--|
|-888-8-8-8-8--x--x--x--x--x-x-x---888-8-8-8-8--x--x--x--x--x-x-x--|
|-888-8-8-8-8--8--8--8--8-/7-7-7---888-8-8-8-8--8--8--8--8-/7-7-7--|
|-888-8-8-8-8----------------------888-8-8-8-8---------------------|

                {bend slighty}
|--------------------------------------------------|
|--------------------------------------------------|
|---------------14-14-14-14-14---------------------|
|-000-0-0-0-0---x--x--x--x--x----0002223335555555--|
|-000-0-0-0-0---12-12-12-12-12---0002223335555555--|
|-000-0-0-0-0--------------------0002223335555555--|

Chorus 2- Guitar 1
|-----------------------------------------------------------------------|
|-----------------------------------------------------------------------|
|-----------------------------------------------------------------------|
|-88-888-888-8888\10-10--10-10-10--10-10-10--10-10-10-10-10x-00-000-0-0-|
|-88-888-888-8888\10-10--10-10-10--10-10-10--10-10-10-10-10x-00-000-0-0-|
|-88-888-888-8888\10-10--10-10-10--10-10-10--10-10-10-10-10x-00-000-0-0-|

|-------------------------------------------------------------|
|-------------------------------------------------------------|
|------------------14p12--14p12--14p12--------12-14-15-14-----|
|-77--77-7--------------12-----12-----12-14-15------------15--|
|-77--77-7-8-8-8-8--------------------------------------------|
|-77--77-7----------------------------------------------------|

|------------------------------------------------------------------------|
|------------------------------------------------------------------------|
|-12p10--12p10--12p10---------10-12-14-12---10-9-7-10-9-7-10-9-12-10-9-7-|
|------10-----10------10-12-14-----------14------------------------------|
|------------------------------------------------------------------------|
|------------------------------------------------------------------------|

|------------------------------|
|------------------------------|
|-12-10-9-12-10-9-12-10-15-14--|
|------------------------------|
|------------------------------|
|------------------------------|

Outro- Guitar 1
|------------------|------------------------------------------------------|
|------------------|------------------------------------------------------|
|------------------|------------------------------------------------------|
|-88-88-88-88-7777-|------------------------------------------------------|
|-88-88-88-88-7777-|-55555555555555555.....and so on and bend occasioanly-|
|-88-88-88-88-7777-|------------------------------------------------------|



and let's just disappear...

Solo- Guitar 1 (again, this was tricky so i did this to the best of my ability)
|--------------------------------------------------------------------|
|--------------------------------------------------------------------|
|-7-7-10-9-7----------------------------8-10-12v---------------------|
|--7--------10-8-7--------------8-10-12----------14-12-14--15-14-15--|
|-----------------10-8-7\8-10-12-----------------_--_--_---_--_--_---|
|--------------------------------------------------------------------|

|------------------------------------------------------------------------|
|--------------------18p15-----------15h20p15----------15-22-20-18-20-18-|
|-------------------------15-------15--------15------15------------------|
|-17-15-17--19-17-19--------15---15------------15--15--------------------|
|-_--_---_--_---_--_-----------17----------------17----------------------|
|------------------------------------------------------------------------|

|--------------------------------------------------------------------------|
|-17-18-17-18--17--15-13-11-13-11-10---------------------------------------|
|----------_---_--------------------15-14-12-14-12-10-----------------15-14|
|----------------------------------------------------17-15-14-15-14-12-----|
|--------------------------------------------------------------------------|
|--------------------------------------------------------------------------|

|------------------------------------------------------------------------|
|-15h19p15-13h15p13-15h19p15-13h15p13-15h19p15p13h15p13-20b--------15-17-|
|----------------------------------------------------------15-17-19------|
|------------------------------------------------------------------------|
|------------------------------------------------------------------------|
|------------------------------------------------------------------------|

|------------------------------------------------------------------------|
|-18-17-18-20b--18h20p18-17h18ph17b--17h1817-----------------------------|
|--------------------------------------------19-17-15-17-15-14--15-14-12-|
|------------------------------------------------------------------------|
|------------------------------------------------------------------------|
|------------------------------------------------------------------------|

|--------------------------------------------------------------------|
|--------------------------------------------------------------------|
|--------------------------------------------5-7-9--7-9-10--9-10-12--|
|-17-15-14-15-14-12----------12t-14t-15t-17t-------------------------|
|------------------15-14-12b-----------------------------------------|
|--------------------------------------------------------------------|

|-----------------------------------------------------------------------|
|-----------------------------------------------------------------------|
|-10-12-14-----------------------------------------------------14-15-17-|
|------------------------------------14-15-17-15-17-19-17-19-20---------|
|----------13-15-17-15-17-19-17-19-20-----------------------------------|
|-----------------------------------------------------------------------|

|----------------------------|
|----------------------------|
|-15-17-19-14t-12t-9t-10t-9t-| Sweep portion(If you don't know how to 
|----------------------------|  do sweep picking than look up tutorails
|----------------------------| on youtube er somthin or ur screwed fr this 
|----------------------------| part)

|-17p13------13h18p13------13h20p13------13h15p13------13-|  *This isn't a 
|------15--15--------15--15--------15--15--------15--15---|  hard sweep just
|--------14------------14------------14------------14-----|  try to get the 
|---------------------------------------------------------|  rythem of it
|---------------------------------------------------------|
|---------------------------------------------------------|

|-17p13------13h18p13------13h20p13------20~-|
|------15--15--------15--15--------15--15----|
|--------14------------14------------14------|
|--------------------------------------------|
|--------------------------------------------|
|--------------------------------------------|

Breakdown- Guitar 1
|-----------------------------------------------------------------|
|-----------------------------------------------------------------|
|--------9-10-9-------------9-10-9-------7-7--8---8--7--9--10--12-|
|-8-10-12------12-10-8-10-12------12-10-8-8-10--10-12-12-12--12---|
|-----------------------------------------------------------------|
|-----------------------------------------------------------------|

*(Play twice)
|-17---------------------------------------------|
|---15-18-15-18-17-18-15-18-17-18-15-15-18-17-18-|
|------------------------------------------------|
|------------------------------------------------|
|------------------------------------------------|
|------------------------------------------------|

|-17-17-17-13-13-13-15-15-15-12-12-12-13-12-10-17-17-17-13-13-13-15-15-15-|
|-------------------------------------------------------------------------|
|-------------------------------------------------------------------------|
|-------------------------------------------------------------------------|
|-------------------------------------------------------------------------|
|-------------------------------------------------------------------------|

|-12-12-12-13-12-10--10-10-10-12-12-12-13-13-13-15-15-15-20-20-20-22~--|
|----------------------------------------------------------------------|
|----------------------------------------------------------------------|
|----------------------------------------------------------------------|
|----------------------------------------------------------------------|
|----------------------------------------------------------------------|

|--15b---12---13----------15----------17----------12---------------|
|------------------------------------------------------------------|
|------------------------------------------------------------------|
|------------------------------------------------------------------|
|------------------------------------------------------------------|
|------------------------------------------------------------------|

Chorus version 2- Guitar 1

For the second version move everything from chorus version 1 up one step like:  
       |-----------------|            |-----------------|
       |-----------------|            |-----------------|
       |-----------------| goes too   |-----------------|
       |-88-888-888-8888-|            |-99-999-999-9999-|
       |-88-888-888-8888-|            |-99-999-999-9999-|
       |-88-888-888-8888-|            |-99-999-999-9999-|

        That's it, practice and leaves comments or questions or corrections

Key/legend:
b= bend string
v= vibrato
_ or t= tremlo pick
h= hammer on
p= pull off
\= slide up
/= slide down
(I didn't put the palm mute in i forgot but im pretty sure if  you  can play this 
song you know where the palm muting shud go.)
comments
print report bad tab
1 comment total.
0 reply
breadtruck wrote on January 22 2012, 08:31 am

Sorry man but quite a few parts of this are wrong. I'm not sure how this managed to get 5 stars. That version 3 one is much more accurate.

I want to post or [tab]
guest
You may want to rate the tab now too:
select rating
Please do not post tabs as comments. Select "correction" instead!