Oops, an error
Loading. Please wait.

The Aftermath The Guillotine Part 3 Bass Tab

version 2
version 2

Whole song

Interactive

131 views 1 this week
no commentswrite comment
1 2 3 4 5
3 more votes to show rating
add to favorites
launch autoscroll
font size
0
reset
guitar tuner
Autoscroll
slow
fast
+/-
esc
set tempo
stop
Help us to improve Ultimate-Guitar.com Take our survey!
×
Author
Difficulty
Tuning
intermediate
C G C F A D
this is my first tab please dont hate it. (: if there's a mistake leave a comment 
and ill fix it (:
this bass tab sounds 100% correct 

tabbed by Mikesb7

intro and bridge tabbed by mariewong

tuning: drop C

enjoy (:


intro [0:00]
F|-------------|  |-----------|
C|-------------|  |-----------|
G|-------------|  |-----------|
C|----(000)----|  |----(0)----| 
      (x30)           (x7)


Verse [0:22]
F|----------------------------------------------------------|  
C|----------------------------------------------------------|  
G|----------------1111~--1111~----------------1111~--1111~--| 
C|--0000~--0000~----------------0000~--0000~----------------|

F|----------------------------------------------------------------------|
C|----------------------------------------------------------------------|
G|----------------------1(x10)--1(x10)----------------------------------|
C|--000--000--000--000------------------0(x10)--000--222--333--5555555--|



Chorus [0:57]
F|--------------------------------------------|
C|--------------------------------------------|
G|--1(x16)--1-3(x16)--3-5(x16)--0(x8)--8(x8)--|(x2)    
C|--------------------------------------------|
                   


Verse [1:18]
F|----------------------------------------------------------|  
C|----------------------------------------------------------|  
G|----------------1111~--1111~----------------1111~--1111~--| 
C|--0000~--0000~----------------0000~--0000~----------------|

F|----------------------------------------------------------------------|
C|----------------------------------------------------------------------|
G|----------------------1(x10)--1(x10)----------------------------------|
C|--000--000--000--000------------------0(x10)--000--222--333--5555555--|



Chorus [1:53]
F|--------------------------------------------|
C|--------------------------------------------|
G|--1(x16)--1-3(x16)--3-5(x16)--0(x7)--8(x7)--|(x2)   
C|--------------------------------------------|
                   
F|--------------------------------|
C|--------------------------------|
G|--8(x16)--11--11--11--1111-000--|
C|--------------------------------|



Bridge [2:22]
F|------------------------------------------|
C|------------------------------------------|
G|------------------------------------------|
C|--00----00----00--00----00--00----00--00--|

F|------------------------------------------|
C|------------------------------------------|
G|------------------------------------------|
C|--0-0(x16)--0-2(x15)--2-3(x15)--3-2(x15)--|

F|------------------------------------------|
C|------------------------------------------|
G|------------------------------------------|
C|--0(x16)--0-2(x15)--2-3(x15)--5(x16)--5~--|



Solo [3:10]
F|----------------------------------|
C|----------------------------------|
G|----------1(x64)----------1(x64)--|
C|--0(x64)----------0(x64)----------|

F|------------------------------------------------------|
C|------------------------------------------------------|
G|----------------------1(x10)--1(x10)------------------|
C|--000--000--000--000------------------0(x10)--0(x10)--|

F|----------------------------------|
C|----------------------------------|
G|--1(x10)--1(x10)------------------|
C|------------------0(x10)--0(x10)--|

F|----------|    |--------|
C|----------|    |--------|
G|----------|    |---1~---|
C|--0(x48)--|    |--------|



Outro [4:22]
F|--------------------------------------------------|
C|--------------------------------------------------|
G|--------------------------------------------------|
C|--8-9(x15)--9-11(X15)--11-13(x15)--8(x8)--16(x8)--|

F|-------------------------------------------|
C|-------------------------------------------|
G|-------------------------------------------|
C|--8-9(x15)--9-11(x15)--11-13(x15)--16(x8)--|

F|-------------------------------------------|
C|-------------------------------------------|
G|-------------------------------------------|
C|--8-9(x15)--9-11(x15)--11-13(x15)--8(x16)--|

F|-----------------------------------------------|
C|-----------------------------------------------|
G|-----------------------------------------------|
C|--8-9(x15)--9-11(x15)--11-13(x15)--8(x16)--9~--|
Suggest correction
Give kudos to tab author, rate the tab!
1 2 3 4 5
comments
print report bad tab
guest
You may want to rate the tab now too:
select rating
Wanna post a correction for this tab? Suggest correction