Oops, an error
Loading. Please wait.

The Day I Left The Womb Tab

version 3
version 3

Whole song

Interactive

14,913 views 21 this week
3 commentsread comments
1 2 3 4 5
excellent!
x 4
add to favorites
launch autoscroll
font size
0
reset
how to read this tab
guitar tuner
Tab Pro tools
  • play this tab
  • loop segment
  • change instrument
  • show fretboard
  • metronome
×
Best way to learn
"The Day I Left The Womb"
Autoscroll
slow
fast
+/-
esc
set tempo
stop
Difficulty
intermediate
Tuning: Standard (Capo #3)

I'm almost certain that this tab is 99% correct, I've listened to both the tab and the 
and it matches the song perfectly. Just listen closely to the song for the strumming 
It's the same pattern throughout the entire song.

  -INTRO-          C    C  Em   Em   C    C  Em   Em
 Rythm Guitar   e|-0--0-0---0--0-0---0--0-0---0--0-0-|
(Listen to Song B|-4--6-4---0--6-0---0--6-0---0--6-0-|
 for Strumming  G|-0--0-0---0--0-0---0--0-0---0--0-0-|
 Pattern        D|-5--5-5---5--5-5---5--5-5---5--5-5-|
                A|-6--6-6---5--5-5---6--6-6---5--5-5-|
                E|-0--0-0---0--0-0---0--0-0---0--0-0-|

                   Mother, where are you today?
                   C
                e|-0--------------------0-----|
                B|-4--------------------6-----|
                G|-0--------------------0-----|
                D|-5--------------------5-----|
                A|-6--------------------6-----|
                E|-0--------------------0-----|

                   You took a piece of me the day you went away,
                  Em
                e|-0--------------------------------------0----|
                B|-0--------------------------------------6----|
                G|-0--------------------------------------0----|
                D|-5--------------------------------------5----|
                A|-5--------------------------------------5----|
                E|-0--------------------------------------0----|


                   No recollection nor the smell of you perfume,
                   C
                e|-0-----------------------------------0-------|
                B|-4-----------------------------------6-------|
                G|-0-----------------------------------0-------|
                D|-5-----------------------------------5-------|
                A|-6-----------------------------------6-------|
                E|-0-----------------------------------0-------|


                  I took a piece of you the day I left the womb
                  Em
                e|-0--------------------------------------0----|
                B|-0--------------------------------------6----|
                G|-0--------------------------------------0----|
                D|-5--------------------------------------5----|
                A|-5--------------------------------------5----|
                E|-0--------------------------------------0----|

                   C    C  Em   Em   C    C  Em   Em
                e|-0--0-0---0--0-0---0--0-0---0--0-0-|
                B|-4--6-4---0--6-0---0--6-0---0--6-0-|
                G|-0--0-0---0--0-0---0--0-0---0--0-0-|
                D|-5--5-5---5--5-5---5--5-5---5--5-5-|
                A|-6--6-6---5--5-5---6--6-6---5--5-5-|
                E|-0--0-0---0--0-0---0--0-0---0--0-0-|

                   Brother, put your needles down
                   C
                e|-0------------------------0----|
                B|-4------------------------6----|
                G|-0------------------------0----|
                D|-5------------------------5----|
                A|-6------------------------6----|
                E|-0------------------------0----|

                   The best thing for you is to leave this awful town.
                  Em
                e|-0--------------------------------------------0----|
                B|-0--------------------------------------------6----|
                G|-0--------------------------------------------0----|
                D|-5--------------------------------------------5----|
                A|-5--------------------------------------------5----|
                E|-0--------------------------------------------0----|


                   Pretty soon, you'll have kids to feed
                   C
                e|-0-------------------------------0----|
                B|-4-------------------------------6----|
                G|-0-------------------------------0----|
                D|-5-------------------------------5----|
                A|-6-------------------------------6----|
                E|-0-------------------------------0----|


                  If you see mother, tell her I can sing.
                  Em                D
                e|-0----------------2------------------|
                B|-0----------------3------------------|
                G|-0----------------2------------------|
                D|-5----------------0------------------|
                A|-5----------------0------------------|
                E|-0----------------0------------------|

  -CHORUS-
(Listen to Song   Em
 for Stumming     Please don't worry, I am doing fine.
 Pattern)
                  G
                  You're much to busy, to even find the time,

                  C
                  So use your chemicals and take this to your grave,

                  D
                  The boys you left are men you didn't raise.

(Listen to Song    C Em Em Em
 for Stumming   e|-0--0--0--0-|
 Pattern)       B|-4--0--0--0-|
                G|-0--0--0--0-|
                D|-5--5--5--5-|
                A|-6--5--5--5-|
                E|-0--0--0--0-|

                  C
                  And daddy, how are you today?

                  Em
                  You must be proud of the boys that you have raised.

                  C
                  Your withered heart, and everything its seen,

                  Em                      D
                  Your guts and callises, you had kids to feed

                  D
                  You had kids to feed.

                  Em
                  Please don't worry, I am doing fine

                  G
                  You're much to busy, to even find the time,

                  C
                  So use your chemicals and take this to your grave,

                  D
                  The boys you left are men you didn't raise
comments
print report bad tab
3 comments total.
+1 reply
sophiaviva wrote on June 20 2011, 03:06 pm

Just a tip - when you tab a song that uses a capo, the numbers should be in relation the capo. So, for instance, the Em should have 2s instead of 5s as it is 2 frets away from the capo.

0 reply
Pandasrule4ever wrote on July 2 2012, 12:24 pm

Is there anyway to play this without a capo? I don't want to buy one just to play one song....

0 reply
metalz4life wrote on April 21 2014, 12:35 pm

This song is in D Standard: tune all strings down by a whole step - DGCFAD

I want to post or [tab]
guest
You may want to rate the tab now too:
select rating
Please do not post tabs as comments. Select "correction" instead!