Oops, an error
Loading. Please wait.

The Flood Tab

version 1
57,017 views 18 this week
2 commentsread comments
1 2 3 4 5
accurate
x 4
add to favorites
launch autoscroll
font size
0
reset
how to read this tab
guitar tuner
Autoscroll
slow
fast
+/-
esc
set tempo
stop
Help us to improve Ultimate-Guitar.com Take our survey!
×
Author
Difficulty
Tuning
novice
C G C F A D
Intro-
---------------------------------------|
---------------------------------------|
---------------------------------4--4--|
---------------------------------3-----|
---------7-----------------7-----5-----|
7-7-7-10---10-7-7-7-7-7-10--10-3-3-3---|


---------------------------------------|
---------------------------------------|
-------------------------------4-4-4-4-|
---------------------------------------|
---------7--------------7------2-2-2-2-|
0-0-0-10--10-7-0-0-0-10---10-7---------|

Verse-
(I'm too tired to do strumming patterns so here are the chords)
---------------------------------------------|
---------------------------------------------|
-----------------13--------------------------|
7-----3---0--9-------------------------------|
7-----3---0--9---11--------------------------|
7-----3---0--9-------------------------------|
I cant believe the drama that im in, the flood is getting closer
but i dont think they know i know how to swim
your feelin numb, from all that has become
it leaves your gums,slips down your toungue and travels fast down towards your lungs

Pre-chours

---------------------------------------------|
---------------------------------------------|
---------------------------------------------|
3-----5---5-5-5-6-7--------------------------|
3-----5---5-5-5-6-7--------------------------|
3-----5---5-5-5-6-7--------------------------|

and now i feel better, all because i left it behind

Chorus


------------------------------------------|
------------------------------------------|
------------------------------------------|
7---10--3--2--3---------------------------|
7---10--3--2--3---------------------------|
7---10--3--2--3---------------------------|
I feel the pressure, It's coming down on me
It's turning me black and blue
You left me on the side of the road
And now I've got no place to go
You've brougt the flood

Itro riff again

Verse and Pre-chorus are the same

and the chours

Breakdown-

-----------------------------------------------------------------|
-----------------------------------------------------------------|
-----------------------------------------------------------------|
-7-------------7-------------7-----------------10----------------|
---0-0-0-000-0---0-0-0-000-0--0-0-0-000-0---10----7--------------|
------------------------------------------7----------------------|

the last chorus is the same
and so is the break down at the end.
i rushed through this tab so if there are mistakes let me know
Suggest correction
comments
print report bad tab
2 comments total.
0 reply
jammyrat 82 wrote on September 15 2008, 12:16 pm

loads more guitar structure in it tbh
good attempt though

0 reply
Gorgeous Player 10 wrote on November 18 2013, 05:16 pm

Bad ass song

guest
You may want to rate the tab now too:
select rating
Wanna post a correction for this tab? Suggest correction