Oops, an error
Loading. Please wait.

The Flood Bass

version 2
version 2
25,613 views 3 this week
3 commentsread comments
1 2 3 4 5
x 7
add to favorites
launch autoscroll
font size
0
reset
guitar tuner
backing track
0:00
0:00
×
Best way to learn
"The Flood"
Autoscroll
slow
fast
+/-
esc
set tempo
stop
Author
----------------------------------------------------------------------------
	  The Flood - Escape the Fate
----------------------------------------------------------------------------

Tabbed By : joshyb
e-mail: duffman-1000@hotmail.com

this is my first tab, :) enjoy. iv check number of times and it sounds right. have fun.



Tuning: Dropped C CGCF

Intro:
F|-----------------------------------------------------------------------|
C|-----------------------------------------------------------------------|
G|0000000000000000--------------------------------22222222222222-2-2-2-2-|
C|----------------33333333333333330000000000000000-----------------------|

Verse:
F|------------------------------------------------------------------------|
C|------------------------------------------------------------------------|
G|0000000000000000--------------------------------222222222222222---------|
C|----------------33333333333333330000000000000000---------------777777777|

F|------------------------------------------------------------------------|
C|------------------------------------------------------------------------|
G|-0---0---0---0---------------------------------2222222222222222---------|
C|-----------------3---3---3----3--0---0---0---0-----------------777777777|

Pre-Chorus:
F|----------------------------------|
C|----------------------------------|
G|----------------------------------|
C|000000000000023-33333333-5-556-667|

Chorus
F|-------------------------------------------------------------=--|
C|----------------------------------------------------------------| X2
G|00000000000000003333333333333333--------------------------------|
C|--------------------------------33333333333333332222222222222222|

F|-----------------------------------------------------------------------|
C|-----------------------------------------------------------------------|
G|0000000000000000--------------------------------22222222222222-2-2-2-2-|
C|----------------33333333333333330000000000000000-----------------------|

F|------------------------------------------------------------------------|
C|------------------------------------------------------------------------|
G|0000000000000000--------------------------------222222222222222---------|
C|----------------33333333333333330000000000000000---------------777777777

F|------------------------------------------------------------------------|
C|------------------------------------------------------------------------|
G|-0---0---0---0---------------------------------2222222222222222---------|
C|-----------------3---3---3----3--0---0---0---0-----------------777777777
Pre-Chorus:
F|---------------------|
C|---------------------|
G|---------------------|
C|000000000000023-45667|

Chorus
F|-------------------------------------------------------------=--|
C|----------------------------------------------------------------| X2
G|00000000000000003333333333333333--------------------------------|
C|--------------------------------33333333333333332222222222222222|

Break:
F|------------------------------------------------|
C|------------------------------------------------|
G|12-------12-12-------12--------12-------12-12-12|
C|------------------------------------------------|

F|-----------------------------------------------|
C|-------------------------------------------10--|
G|12-000-000--12-000-000--12-000-000-------7---11| X4
C|---------------------------------------10------|

F|-------------|
C|--------10---|
G|-----7-----11| X3
C|-10----------|

Chorus
F|----------------------------------------|
C|----------------------------------------| X1
G|0---------------33333333----------------|
C|------------------------3-33----22222222|

Chorus
F|----------------------------------------------------------------|
C|----------------------------------------------------------------| X2
G|----------------3333333333333333--------------------------------|
C|7777777777777777----------------33333333333333332222222222222222|

F|---------------------------------------|
C|---------------------------------------| X1
G|0000000000033333333333-----------------|
C|----------------------3-2-1-0-222222222|

F|----------------------------------------|
C|----------------------------------------| X1
G|0000000000033333333333------------------|
C|----------------------3-5-7-10-222222222|

Ending:
F|-----------------------------------------------|
C|-------------------------------------------10--|
G|12-000-000--12-000-000--12-000-000-------7---11| X2
C|---------------------------------------10------|

F|-------------|
C|----10-------| X3
G|---7--11-----| 
C|-10----------|


============================================================================
Suggest correction
comments
print report bad tab
3 comments total.
0 reply
RyanWRAITH 10 Nov 03, 2008 11:27 AM

when i do the breakdown i play

-----------3--------------
---7---------4-------------
--------6-----------------
------5-------------------

sounds closer to me but idk your might be right

0 reply
MusicMan24 1,114 Jan 02, 2010 10:27 AM

Great tab man

0 reply
vtolegend 10 Jan 28, 2010 11:59 AM

in this video i filmed of max playing the flood, max plays it waaaaay differently, the guitars mask the bass in parts of the song where he plays differently

guest
You may want to rate the tab now too:
select rating
Wanna post a correction for this tab? Suggest correction