Oops, an error
Loading. Please wait.

The Flood Tab

version 2
10,704 views 1 this week
no commentswrite comment
1 2 3 4 5
please rate
add to favorites
launch autoscroll
font size
0
reset
how to read this tab
guitar tuner
Autoscroll
slow
fast
+/-
esc
set tempo
stop
Help us to improve Ultimate-Guitar.com Take our survey!
×
Tuning
C G C F A D
|--------------------------------------------------|  
|--------------------------------------------------|  
|--------------------------------------------------|
|-10--10--10-12-------------------------3-3-3--2---|  
|-10--10--10-12-----------7p---------7p-3-3-3------|  
|-10--10--10-12--7-7-9-10---7-7-9-10----3-3-3------|  

|-----------------------------------------------|
|-----------------------------------------------|
|-----------------------------------------------|
|-----------------------9-9-9-9-10--10--10-12-7-|
|---------7p---------7p-9-9-9-9-10--10--10-12-7-|
|-0-7-9-10---0-7-9-10---9-9-9-9-10--10--10-12-7-|

|------------------------------------------------------------|
|------------------------------------------------------------|
|------------------------------------------------------------|
|-7------7-3-3------3-0-0------9-9-9-9-9-9-10-10-10-10-10-10-|
|-7------7-3-3------3-0-0------9-9-9-9-9-9-10-10-10-10-10-10-|
|-7(x10)-7-3-3(x10)-3-0-0(x10)-9-9-9-9-9-9-10-10-10-10-10-10-|
  .          .          .     
|---------------------------------------------------------|
|---------------------------------------------------------|
|---------------------------------------------------------|
|-7---7---7---7---7-3---3---3---3---3-0---0---0---0---0-|
|-7---7---7---7---7-3---3---3---3---3-0---0---0---0---0-|
|-7---7---7---7---7-3---3---3---3---3-0---0---0---0---0-|
      .   .   .   .     .   .   .   .     .   .   .   .

|-------------------------------|
|-------------------------------|
|-------------------------------|
|-9-9-9-9-9-9-10-10-10-10-10-10-|
|-9-9-9-9-9-9-10-10-10-10-10-10-|
|-9-9-9-9-9-9-10-10-10-10-10-10-|

|-------------------------------|
|-------------------------------|
|-------------------------------|
|-7-----10-----12--12--12-13----|
|-7-----10-----12--12--12-13----|
|-7-----10-----12--12--12-13----|

|--------------------------|
|--------------------------|
|--------------------------|
|-7-----10-----3-----2-----|
|-7-----10-----3-----2-----|
|-7(x9)-10(x9)-3(x9)-2(x9)-|(x2)
Suggest correction
Give kudos to tab author, rate the tab!
1 2 3 4 5
comments
print report bad tab
guest
You may want to rate the tab now too:
select rating
Please do not post tabs as comments. Select "correction" instead!