Oops, an error
Loading. Please wait.

The Flood Bass Tab

version 3
version 3
7,608 views 12 this week
1 commentread comment
1 2 3 4 5
excellent!
x 8
add to favorites
launch autoscroll
font size
0
reset
guitar tuner
Tab Pro tools
  • play this tab
  • loop segment
  • change instrument
  • show fretboard
  • metronome
×
Best way to learn
"The Flood"
Autoscroll
slow
fast
+/-
esc
set tempo
stop
Contributor
Artist :Escape The Fate
Track  :The Flood
Album  :This War Is Ours
Tuning :Drop C

- The dots under some notes means its staccato.
Sorry If i Missed Anything.

-Intro/Verse 1-
C|---------|----------------------------------------------------------------------|
F|---------|----------------------------------------------------------------------|
G|-2-2-222-|---------------------------------------------------2~22222222-2-2-222-|
C|---------|-7~7777777~777777-3~3333333~333333-0~000000~000000--------------------|
   . .                                                                    . .
-Verse 1-
F|-------------------------------------------------------------------------|
C|-------------------------------------------------------------------------|
G|---------------------------------------------------2~22222222/1111111111-|
C|-7~77777777777777-3~33333333333333-0~00000000000000----------------------|

F|---------------------------------------------------------------|
C|---------------------------------------------------------------|
G|-----------------------------------------2~2222222/11111111111-|
C|-777-7~7-7-7-777-3~3-3-3-333-0~0-0-0-000-----------------------|
         . . .       . . .       . . .    
-Pre-Chorus 1-
F|------------------------------|
C|------------------------------|
G|-5~555555557-8~888888-5-5-6-6-|
C|------------------------------|
                        . . . .
-Chorus 1-
F|-------------------------------------------------------------------|
C|-------------------------------------------------------------------| 
G|-----------------3~33333333333333------------------7~7777777777777-|
C|-7~7777777777777------------------3~33333333333333-----------------|

F|------------------------------------------------------------------|
C|------------------------------------------------------------------| 
G|-----------------3~33333333333333------------------7~77777777777\-|
C|-7~7777777777777------------------3~33333333333333----------------|

-Intro/Verse 2-
F|----------------------------------------------------------------------|
C|----------------------------------------------------------------------|
G|---------------------------------------------------2~22222222-2-2-222-|
C|-7~7777777~777777-3~333333~3333333-0~000000~000000--------------------|
                                                                . .
-Verse 2-
F|-------------------------------------------------------------------------|
C|-------------------------------------------------------------------------|
G|---------------------------------------------------2~22222222/1111111111-|
C|-7~77777777777777-3~33333333333333-0~0000000 000000-----------------------|

F|---------------------------------------------------------------------|
C|---------------------------------------------------------------------|
G|-----------------0~000-000-000-000-------------2~2222222/11111111111-|
C|-777-7~7-7-7-777-------------------0~0-0-0-000-----------------------|
         . . .                         . . .    
-Pre-Chorus 2-
F|------------------------------|
C|------------------------------|
G|-5~555555557-8~888888---------|
C|----------------------4-5-6-7-|
                        . . . .
-Chorus 2-
F|-----------------------------------------------------------------------|
C|-----------------------------------------------------------10-9-10-10--| 
G|-----------------3~33333333333333------------------7~777777--7-7--7--7-|
C|-7~7777777777777------------------3~33333333333333---------------------|

F|------------------------------------------------------------------|
C|------------------------------------------------------------------| 
G|-----------------3~33333333333333------------------7~77777777777\-|
C|-7~7777777777777------------------3~33333333333333----------------|

-Break 1-
F|-------------------|------------------------------|
C|-------------------|------------------------------|
G|-------------------|------------------------------|
C|-7\----------------|-7\------7\------7\----7-7-7--|
                                             . . .
F|----------------------------------------5---|
C|-7\----------7\----------7\---------------6-|
G|----000-000-----000-000-----000-000-3-7-----|
C|--------------------------------------------|
                                      . . . .
F|----------------------------------------5---|
C|-7\----------7\----------7\---------------6-|
G|----000-000-----000-000-----000-000-3-7-----|
C|--------------------------------------------|
                                      . . . .
F|----------------------------------------5---|
C|-7\----------7\----------7\---------------6-|
G|----000-000-----000-000-----000-000-3-7-----|
C|--------------------------------------------|
                                      . . . .
F|----------------------------------------5---|
C|-7\----------7\----------7\---------------6-|
G|----000-000-----000-000-----000-000-3-7-----|
C|--------------------------------------------|
                                      . . . .
F|-----5----|
C|-------6--|
G|-3-7------|
C|----------|
   . . . .
F|-----5----|
C|-------6--|
G|-3-7------|
C|----------|
   . . . .
F|-----5----|
C|-------6--|
G|-3-7------|
C|----------|
   . . . .

-Bridge 1-
F|-------------------|------------------------------------------|
C|-------------------|------------------------------------------|
G|-------3-3-333-----|--03~3333333\151515151515--------2~222222-|
C|-0~~~~~--------7\--|--------------------------00~0------------|
         . .
-Chorus 3-
F|-------------------------------------------------------------------|
C|-------------------------------------------------------------------| 
G|-----------------3~33333333333333------------------7~7777777777777-|
C|-7~7777777777777------------------3~33333333333333-----------------|

F|--------------------------------------------------------------------|
C|----------------------------------------------------------10-9-1097-| 
G|-----------------3~33333333333333-8888777755553333/7777777--7-7-----|
C|-7~7777777777777----------------------------------------------------|

F|-------------------------------------------------------------------|
C|-------------------------------------------------------------------|
G|--------------333-3~33/1515151515---------------------7~77777777-7-|
C|-777-7~7-77-7---------------------333~5555777710101010-------------|
                                                                   .
-Outro 1-
F|--------------------------5---|
C|----------------------------6-|
G|----------------------3-7-----|
C|-7\-----7\-----7\-------------|

F|--------------------------5---|
C|----------------------------6-|
G|----------------------3-7-----|
C|-7\-----7\-----7\-------------|

F|-----5----|
C|-------6--|
G|-3-7------|
C|----------|

F|-----5----|
C|-------6--|
G|-3-7------|
C|----------|

F|-----5----|
C|-------6--|
G|-3-7------|
C|----------|
   . . . . 
comments
print report bad tab
1 comment total.
0 reply
TheSilentSniper wrote on September 16 2010, 01:26 am

Flawless. Good job.

I want to post or [tab]
guest
You may want to rate the tab now too:
select rating
Please do not post tabs as comments. Select "correction" instead!