Oops, an error
Loading. Please wait.

The Flood Bass Tab

version 4
version 4
1,087 views 1 this week
1 commentread comment
1 2 3 4 5
please rate
add to favorites
launch autoscroll
font size
0
reset
guitar tuner
Autoscroll
slow
fast
+/-
esc
set tempo
stop
Help us to improve Ultimate-Guitar.com Take our survey!
×
Author
-------------------------------------------------------------------------------
			     The Flood - Escape the Fate
-------------------------------------------------------------------------------

Tabbed By :Beato413 
e-mail:felix-413@hotmail.com 

Tuning:Drop C

Intro:
F|---------------------------------------------------------------------------|
C|---------------------------------------------------------------------------|
G|0000000000000000--------------------------------22222222222222-2-2-2-2-----|
C|----------------33333333333333330000000000000000---------------------------|

Verse:
F|---------------------------------------------------------------------------|
C|---------------------------------------------------------------------------|
G|0000000000000000--------------------------------22222222222222-------------|
C|----------------33333333333333330000000000000000--------------777777777----|

F|---------------------------------------------------------------------------|
C|---------------------------------------------------------------------------|
G|-0---0---0---0--------------------------------2222222222222222-------------|
C|-----------------3---3---3---3---0---0---0---0----------------777777777----|

Pre-Chorus:
F|---------------------------------------------------------------------------|
C|---------------------------------------------------------------------------|
G|---------------------------------------------------------------------------|
C|00000000000002333333333355556----------------------------------------------|

Chorus:
F|---------------------------------------------------------------------------|
C|---------------------------------------------------------------------------|
G|00000000000000003333333333333333-------------------------------------------| X2
C|--------------------------------33333333333333332222222222222222-----------|

G|---------------------------------------------------------------------------|
D|---------------------------------------------------------------------------|
A|0000000000000000--------------------------------22222222222222-2-2-2-2-----|
E|----------------33333333333333330000000000000000---------------------------|

Verse:
F|---------------------------------------------------------------------------|
C|---------------------------------------------------------------------------|
G|000000000000000033333333333333330000000000000000---------------------------|
C|------------------------------------------------222222777777---------------|

F|---------------------------------------------------------------------------|
C|---------------------------------------------------------------------------|
G|-0---0---0---0--------------------------------2222222222222222-------------|
C|-----------------3---3---3---3---0---0---0---0----------------777777777----|

Pre-Chorus:
F|---------------------------------------------------------------------------|
C|---------------------------------------------------------------------------|
G|---------------------------------------------------------------------------|
C|00000000000002333333333355556----------------------------------------------|

Chorus:
F|---------------------------------------------------------------------------|
C|---------------------------------------------------------------------------|
G|00000000000000003333333333333333-------------------------------------------| X2
C|--------------------------------33333333333333332222222222222222-----------|

Break:
F|---------------------------------------------------------------------------|
C|---------------------------------------------------------------------------|
G|12\------12\--12\--12\-12-12-12--------------------------------------------|
C|---------------------------------------------------------------------------|

F|---------------------------------------------------------------------------|
C|------------------------------------------10-------------------------------|
G|12-000-000--12-000-000--12-000-000-------9--11-----------------------------| X4
C|---------------------------------------10----------------------------------|

F|---------------------------------------------------------------------------|
C|----10---------------------------------------------------------------------|
G|---9--11-------------------------------------------------------------------| X3
C|-10------------------------------------------------------------------------|

F|---------------------------------------------------------------------------|
C|---------------------------------------------------------------------------|
G|-------3-3-333------03-3333333\151515151515--------2-222222----------------|
C|10-------------3----------------------------00-0---------------------------|

F|---------------------------------------------------------------------------|
C|---------------------------------------------------------------------------|
G|----------------3333333333333333-------------------------------------------| X2
C|7777777777777777----------------33333333333333330000000000000000-----------|

F|---------------------------------------------------------------------------|
C|----------------------------------------------------------10-9-1097--------|
G|-----------------3~33333333333333-8888777755553333/7777777--7-7------------|
C|-7-7777777777777-----------------------------------------------------------|


F|---------------------------------------------------------------------------|
C|---------------------------------------------------------------------------|
G|--------------333-3~33/1515151515---------------------7~77777777-7---------|
C|-777-7~7-77-7---------------------333~5555777710101010---------------------|

F|---------------------------------------------------------------------------|
C|----------------------10---------------------------------------------------|
G|-12\--12\--12\-------9--11-------------------------------------------------| X2
C|-------------------10------------------------------------------------------|

F|---------------------------------------------------------------------------|
C|----10---------------------------------------------------------------------|
G|---9--11-------------------------------------------------------------------| X3
C|-10------------------------------------------------------------------------|
Suggest correction
Give kudos to tab author, rate the tab!
1 2 3 4 5
comments
print report bad tab
1 comment total.
0 reply
synysterblack 528 wrote on May 4 2009, 04:06 pm

way to copy other peoples tabs and do it wrong

guest
You may want to rate the tab now too:
select rating
Wanna post a correction for this tab? Suggest correction