Oops, an error
Loading. Please wait.

The Flood Tab

version 4
107,579 views 15 this week
17 commentsread comments
1 2 3 4 5
x 29
add to favorites
launch autoscroll
font size
0
reset
how to read this tab
guitar tuner
Autoscroll
slow
fast
+/-
esc
set tempo
stop
Help us to improve Ultimate-Guitar.com Take our survey!
×
Author
Difficulty
Tuning
intermediate
C G C F A D
I was bored. There are probably some mistakes, but hey, I tried and most of it sounds 
So cut the crap and save it for your momma. But any constructive critisisim would be mucho 
Have fun =]

The Flood by Escape the Fate
Tabbed by Ritz (ritz8crackers@hotmail.com)

Tuning: Drop C

/ = pick scrape
. = palm mute
<>= pinch harmonic

Intro
D|-------------------------------------------------------------|
A|-------------------------------------------------------------|
F|-----------------------------444-44-<4>----------------------|
C|---4--4-44-------------------333-33--------------------------|
G|---2--2-22----0-2-3-0-7-3-x2-555-55---------0-2-3-0-7-3-2-x2-|
C|-/---------------------------333-33-----12/------------------|
               (if the 7^ is too much of a stretch for you, just
                fret 2 on the c string)

D|---------------------|
A|---------------------|
F|-44444444------------|
C|-xxxxxxxx--5-5-66----|
G|-22222222--5-5-66----|
C|-----------5-5-66----|

Verse
D|----------------------------------------------------------------------|
A|----------------------------------------------------------------------|
F|-------------------------------------------44444444-1212121212121212--|
C|-7777777777777-3333333333333-0000000000000-xxxxxxxx--x-x-x-x-x-x-x-x--|
G|-7777777777777-3333333333333-0000000000000-22222222-1111111111111111--|
C|-7777777777777-3333333333333-0000000000000----------------------------|
    ............  ............  ............

D|---------------------------------------------------------------|
A|---------------------------------------------------------------|
F|------------------------------------44444444-1212121212121212--|
C|-7--7--77--3--3--3--33--0--0--0--00-xxxxxxxx--x-x-x-x-x-x-x-x--|
G|-7--7--77--3--3--3--33--0--0--0--00-22222222-1111111111111111--|
C|-7--7--77--3--3--3--33--0--0--0--00----------------------------|
   .  .  ..     .  .  ..     .  .  ..

D|-----------------------------------|
A|-----------------------------------|
F|-----------------------------------|
C|-00000000000000-3-55555555-55-66-7-|
G|-00000000000000-3-55555555-55-66-7-|
C|-00000000000000-3-55555555-55-66-7-|
    .............   ........

Chorus
D|------------------------------------------------------------|
A|------------------------------------------------------------|
F|------------------5555555555555555-101010101010101010101010-|
C|-7777777777777777-5555555555555555-101010101010101010101010-|
G|-7777777777777777-3333333333333335--8-8-8-8-8-8-8-8-8-8-8-8-|
C|-7777777777777777-------------------------------------------|

D|---------------------------|
A|---------------------------|
F|-99999999-1212121212121212-|
C|-99999999--x-x-x-x-x-x-x-x-|
G|-77777777-1111111111111111-|
C|---------------------------|

D|----------------------------------------------------------------|
A|----------------------------------------------------------------|
F|------------------5555555555555555-----101010101010101010101010-|
C|-7777777777777777-5555555555555555-000-101010101010101010101010-|
G|-7777777777777777-3333333333333335-000--8-8-8-8-8-8-8-8-8-8-8-8-|
C|-7777777777777777------------------000--------------------------|
                                     ...
D|-------------|
A|-------------|
F|-99999999-12-|
C|-99999999--x-|
G|-77777777-11-|
C|-------------|

Repeat Intro

Verse 2
D|----------------------------------------------------------------------|
A|----------------------------------------------------------------------|
F|-------------------------------------------44444444-1212121212121212--|
C|-7777777777777-3333333333333-0000000000000-xxxxxxxx--x-x-x-x-x-x-x-x--|
G|-7777777777777-3333333333333-0000000000000-22222222-1111111111111111--|
C|-7777777777777-3333333333333-0000000000000----------------------------|
    ............  ............  ............

D|------------------------------------------------------------------------|
A|------------------------------------------------------------------------|
F|----------------------------------------------44444444-1212121212121212-|
C|-7--7--77-3-333-333-333-333-333-3-0--0--0--00-xxxxxxxx--x-x-x-x-x-x-x-x-|
G|-7--7--77-3-333-333-333-333-333-3-0--0--0--00-22222222-1111111111111111-|
C|-7--7--77-3-333-333-333-333-333-3-0--0--0--00---------------------------|
   .  .  ..   ... ... ... ... ...   .  .  .  ..

D|-----------------------------------|
A|-----------------------------------|
F|-----------------------------------|
C|-00000000000000-3-55555555-55-66-7-|
G|-00000000000000-3-55555555-55-66-7-|
C|-00000000000000-3-55555555-55-66-7-|
    .............   ........


Repeat Chorus


D|----------------------------|
A|----------------------------|
F|-<2>------------------------|
C|---------------x3-------2---|
G|-----000-000-0------0-3--3--|
C|----------------------------|
       ... ... .

D|------------------------|
A|------------------------|
F|-<2>--------------------|
C|---------------x3---000-|
G|-----000-000-0------000-|
C|--------------------000-|
       ... ... .      ...

D|----------------------------|
A|----------------------------|
F|-<2>------------------------|
C|---------------x3-------2---|  x2
G|-----000-000-0------0-3--3--|
C|----------------------------|
       ... ... .

D|-------------------------------------| the second time that plays, there's
A|-------------------------------------| this little part another guitar plays
F|-------------------------------------| on the F string. here it is:
C|----7-777--7-777--7-777------2---x2--|
G|----7-777--7-777--7-777--0-3--3------| you can barely hear it, so listen
C|----7-777--7-777--7-777--------------| carefully for it.
        ...    ...    ...
                                      F|-222222222222555555555555999999999|

D|----------------------|
A|----------------------|
F|-----------------<2>~-|
C|---------2--x3--------|
G|-----0-3--3-----------|
C|----------------------|

Final Chorus
D|------------------------------------------------------------|
A|------------------------------------------------------------|
F|---------------------------------5555555555555555------<2>~-|
C|-5-5-66-7------------------------5555555555555555----2------|
G|-5-5-66-7----I FEEL THE PRESSURE-3333333333333333-0-3-3-----|
C|-5-5-66-7---------------------------------------------------|

D|----------------------------------------------------------------|
A|----------------------------------------------------------------|
F|------------------5555555555555555-----101010101010101010101010-|
C|-7777777777777777-5555555555555555-000-101010101010101010101010-|
G|-7777777777777777-3333333333333335-000--8-8-8-8-8-8-8-8-8-8-8-8-|
C|-7777777777777777------------------000--------------------------|
                                     ...

D|---------------------------|
A|---------------------------|
F|-99999999-1212121212121212-|
C|-99999999--x-x-x-x-x-x-x-x-|
G|-77777777-1111111111111111-|
C|---------------------------|

D|------------------------------------------------------------|
A|------------------------------------------------------------|
F|------------------5555555555555555-101010101010101010101010-|
C|-7777777777777777-5555555555555555-101010101010101010101010-|
G|-7777777777777777-3333333333333335--8-8-8-8-8-8-8-8-8-8-8-8-|
C|-7777777777777777-------------------------------------------|

D|---------------------------|
A|---------------------------|
F|-99999999-1212121212121212-|
C|-99999999--x-x-x-x-x-x-x-x-|
G|-77777777-1111111111111111-|
C|---------------------------|


D|----------------------------------------------------------------|
A|----------------------------------------------------------------|
F|------------------5555555555555555-----101010101010101010101010-|
C|-7777777777777777-5555555555555555-000-101010101010101010101010-|
G|-7777777777777777-3333333333333335-000--8-8-8-8-8-8-8-8-8-8-8-8-|
C|-7777777777777777------------------000--------------------------|
                                     ...
D|-------------|
A|-------------|
F|-99999999-12-|
C|-99999999--x-|
G|-77777777-11-|
C|-------------|

Outro
D|----------------------------|
A|----------------------------|
F|-<2>------------------------| x2
C|---------------x3-------2---|
G|-----000-000-0------0-3--3--|
C|----------------------------|
       ... ... .


D|-----------------|
A|-----------------|
F|-----------------|
C|---------2--x3---|
G|-----0-3--3------|
C|-----------------|

THE END!

Please please please rate and comment =] Let me know if the tab is missing anything so 
I can fix it for you. Thankies :)
Suggest correction
comments
print report bad tab
17 comments total. Showing first comments.
+5 reply
CradleOfAwesom3 41 Nov 27, 2008 07:42 AM

Good job, it looks pretty good. 5*
If you can, can you make this into a GP, it would be much appreciated.

+1 reply
ritalinkid 92 Nov 27, 2008 12:13 PM

Thanks :]
I've never used GP before, so I don't know how to use it. Yeah, I'm such a n00b, right?
If I have the time I'll figure out how and submit one.

+1 reply
padgea7x 50 Dec 12, 2008 03:19 PM

this is acurate me like it:P
good job
i am useless at tabbing stuff
5*****

guest
You may want to rate the tab now too:
select rating
Wanna post a correction for this tab? Suggest correction