Oops, an error
Loading. Please wait.

The Flood Bass Tab

version 5
version 5
939 views 1 this week
2 commentsread comments
1 2 3 4 5
please rate
add to favorites
launch autoscroll
font size
0
reset
guitar tuner
Autoscroll
slow
fast
+/-
esc
set tempo
stop
Help us to improve Ultimate-Guitar.com Take our survey!
×
Author
The Flood
Escape the Fate
Drop C
Tabbed by: Synysterblack

-Intro/Verse-
F|----------------------------------------------------------------------------------------|
C|----------------------------------------------------------------------------------------|
G|-\2-2-222-0~0000000~0000000-----------------------------------2~22222222-11-11-111111---|
C|---------------------------3~3333333~3333333-0~0000000~0000000--------------------------|

F|--------------------------------------------------------------------------------------|
C|--------------------------------------------------------------------------------------|
G|-0~0000000000000000-------------------------------------2~22222222-1111111111111111---|
C|-------------------3~3333333333333333-0~0000000000000000------------------------------|
                                                                         
F|--------------------------------------------------------------------|
C|--------------------------------------------------------------------|
G|-0~00-0-0-000-------------------------2~22222222-1111111111111111---|
C|-------------3~33-3-3-333-0~00-0-0-000------------------------------|

-Pre-chorus-
F|-------------------------------------------|
C|-------------------------------------------|
G|-0000000000000002-3~33333333-15~15-17~17---|
C|-------------------------------------------|

-Chorus-
F|-------------------------------------------------------------------------------|
C|-------------------------------------------------------------------------------|
G|-0~0000000000000000-3~3333333333333333------------------7~77777777-------------|
C|--------------------------------------3~3333333333333333----------10109-10-9---|

F|----------------------------------------------------------------------|
C|----------------------------------------------------------------------|
G|-0~0000000000000000-3~3333333333333333------------------7~77777777\---|
C|--------------------------------------3~3333333333333333--------------|

-Verse 2-
F|-------------------------------------------------------------------------------|
C|-------------------------------------------------------------------------------|
G|-0~0000000~0000000-----------------------------------2~22222222-11-11-111111---|
C|------------------3~3333333~3333333-0~0000000~0000000--------------------------|

F|----------------------------------------------------------------------------------------|
C|----------------------------------------------------------------------------------------|
G|-0~0000000000000000-8~8888888888888888-5~5555555555555555-2~22222222-1111111114121112---|
C|----------------------------------------------------------------------------------------|

F|------------------------------------------------------------------------|
C|------------------------------------------------------------------------|
G|-0~00-0-0-000-----------------------------2~22222222-1111111111111111---|
C|-------------3~33-333-333-333-0~00-0-0-000------------------------------|

-Pre-chorus 2-
F|--------------------------------------|
C|--------------------------------------|
G|-0000000000000002-3~33333333----------|
C|----------------------------2-3-4-5---|

-Chorus 2-
F|------------------------------------------------------------------------------|
C|------------------------------------------------------------------10-9-10-9---|
G|-0~0000000000000000-3~3333333333333333------------------7~77777777------------|
C|--------------------------------------3~3333333333333333----------------------|

F|-----------------------------------------------------------------------|
C|-----------------------------------------------------------------------|
G|-0~0000000000000000-3~3333333333333333------------------7~77777777\----|
C|--------------------------------------3~3333333333333333---------------|

-Break-
F|--------------------------|
C|--------------------------|
G|--------------------------|
C|-7\------7\-7\-7\-7-7-7---|

-Bridge-
F|--------------------------5----|
C|---------------------------6---|
G|---00-00--00-00--00-00-3-7-----|
C|-7\-----7\-----7\--------------|
F|--------------------------5----|
C|---------------------------6---|
G|---00-00--00-00--00-00-3-7-----|
C|-7\-----7\-----7\--------------|

F|--------------------------5----|
C|---------------------------6---|
G|---00-00--00-00--00-00-3-7-----|
C|-7\-----7\-----7\--------------|

F|--------------------------5----|
C|---------------------------6---|
G|---00-00--00-00--00-00-3-7-----|
C|-7\-----7\-----7\--------------|

F|----5----|
C|-----6---|
G|-3-7-----|
C|---------|

F|----5----|
C|-----6---|
G|-3-7-----|
C|---------|

F|----5------|
C|-----6-----|
G|-3-7-------|
C|--------9~-|

F|--------------|
C|--------------|
G|--------------|
C|-9-9-999-7\---|

F|--------------------------------------------|
C|--------------------------------------------|
G|-3~33333/15151515151515---------------------|
C|------------------------3~33---2~22-22222---|

-Chorus 3-
F|------------------------------------------------------------------------------|
C|------------------------------------------------------------------1097-1097---|
G|-0~0000000000000000-3~3333333333333333------------------7~77777777------------|
C|--------------------------------------3~3333333333333333----------------------|

F|----------------------------------------------------------------------------|
C|----------------------------------------------------------------10-9-10-9---|
G|-0~0000000000000000-3~3333333333333333-88887777555588887~7777777------------|
C|----------------------------------------------------------------------------|

F|-------------------------------------------------------------------|
C|-------------------------------------------------------------------|
G|-000-00-0-0-00000-333-33/15~151515151515----------------77777777---|
C|----------------------------------------3~33355557777999-----------|

-Outro-
F|-----------------5----|
C|------------------6---|
G|---00--00--00-3-7-----|
C|-7\--7\--7\-----------|

F|-----------------5----|
C|------------------6---|
G|---00--00--00-3-7-----|
C|-7\--7\--7\-----------|

F|----5----|
C|-----6---|
G|-3-7-----|
C|---------|

F|----5----|
C|-----6---|
G|-3-7-----|
C|---------|

F|----5----|
C|-----6---|
G|-3-7-----|
C|---------|
Suggest correction new What's this?
You can suggest a correction to this tab. Community and Mods will review your correction and vote to approve or reject it.
comments
We did not receive enough feedback on this tab! Please rate:
print report bad tab
1 2 3 4 5
2 comments total.
-1 reply
Beato413 246 wrote on August 5 2009, 05:20 pm

This is barely different than the other ones!

0 reply
synysterblack 818 wrote on August 5 2009, 06:11 pm

your point.
its right

guest
You may want to rate the tab now too:
select rating
Please do not post tabs as comments. Select "correction" instead!