Oops, an error
Loading. Please wait.

The Flood Tab

version 5
4,065 views 1 this week
no commentswrite comment
1 2 3 4 5
please rate
add to favorites
launch autoscroll
font size
0
reset
how to read this tab
guitar tuner
Autoscroll
slow
fast
+/-
esc
set tempo
stop
Help us to improve Ultimate-Guitar.com Take our survey!
×
Author
Difficulty
Tuning
novice
C G C F A D
Ok i notice there werent alot of tabs for this song
so i thought i could help out. I learned this song by ear.
The tuning is drop C. Everything is right except for the beginning sqeal.
Its pretty simple and youll have alot of fun playing.
So here you go.


intro
------------------------------------------------------|
------------------------------------------------------|
------------------------------------------------------|
-\\\\\\\\\\--5-5-5-5-------------------2x-------------|
-\\\\\\\\\\\-5-5-5-5-------------7--------------------|
-------------5-5-5-5----7-7-7-10---10-----------------|

------------------------------------------------------|
------------------------------------------------------|
-----------------------------------4-4-4-4------------|
-3-3-5-5-5-5~---------------2x-----4-4-4-4--5-5-5-5-5-|
-3-3-3-3-3--------------7----------2-2-2-2--5-5-5-5-5-|
-3-3-3-3-3-----7-7-7-10---10----------------5-5-5-5-5-|


verse
------------------------------------------------------|
-------------------------------------------9-9-9-9----|
----------------------------------4-4-4-4--x-x-x-x----|
-7-7777777--3-3333333--0-0000000--4-4-4-4--6-6-6-6----|  2x
-7-7777777--3-3333333--0-0000000--2-2-2-2-------------|
-7-7777777--3-3333333--0-0000000----------------------|
   *******    *******    *******


------------------------|
------------------------|
------------------------|
-0-0000000--3-3333333---|
-0-0000000--3-3333333---|
-0-0000000--3-3333333---|
   *******    *******

chorus
-------------------------------------------------------|
-------------------------------------------------------|
--------------5----------------------------------------|
-7------------5--16x------3-----------2------------5---|
-7--16x-------3-----------3--16x------2--8x--------5---|8x
-7------------------------3-----------2------------5---|

------------------------------------------------------|
------------------------------------------------------|
--------------5---------------------------------------|
-7------------5--16x------3-----------2------------5--|
-7--16x-------3-----------3--16x------2--8x--------5--|
-7------------------------3-----------2------------5--|

------------------------------------------------------|
------------------------------------------------------|
------------------------------------------------------|
----------------2x--3-3-5-5-5-5~----------------2x----|
----------7---------3-3-3-3-3-------------7-----------|
-7-7-7-10---10------3-3-3-3-3----7-7-7-10---10--------|

------------------------|
------------------------|
-4-4-4-4----------------|
-4-4-4-4----5-5-5-5-5---|
-2-2-2-2----5-5-5-5-5---|
------------5-5-5-5-5---|


verse
------------------------------------------------------|
-------------------------------------------9-9-9-9----|
----------------------------------4-4-4-4--x-x-x-x----|
-7-7777777--3-3333333--0-0000000--4-4-4-4--6-6-6-6----|
-7-7777777--3-3333333--0-0000000--2-2-2-2-------------|
-7-7777777--3-3333333--0-0000000----------------------|
   *******    *******    *******


------------------------------------------------------|
------------------------------------------------------|
----------------------------------------4-4-4-4-------|
-7-7777777-------------------0-0000000--4-4-4-4-------|
-7-7777777-------------------0-0000000--2-2-2-2-------|
-7-7777777--333-333-333-333--0-0000000----------------|
   *******  *** *** *** ***    *******


-----------|
-9-9-9-9---|
-x-x-x-x---|
-6-6-6-6---|
-----------|
-----------|

------------------------|
------------------------|
------------------------|
-0-0000000--3-3333333---|
-0-0000000--3-3333333---|
-0-0000000--3-3333333---|
   *******    *******

chorus
-------------------------------------------------------|
-------------------------------------------------------|
--------------5----------------------------------------|
-7------------5--16x------3-----------2------------5---|
-7--16x-------3-----------3--16x------2--8x--------5---|8x
-7------------------------3-----------2------------5---|

------------------------------------------------------|
------------------------------------------------------|
--------------5---------------------------------------|
-7------------5--16x------3-----------2------------5--|
-7--16x-------3-----------3--16x------2--8x--------5--|
-7------------------------3-----------2------------5--|

------------------------------------------------------|
------------------------------------------------------|
------------------------------------------------------|
-10~--------10~--------10~-------------10-------------|
------------------------------------------7-----------|
----777-777----777-777----777-777--7-10---------------|
    *** ***    *** ***    *** ***


------------------------------------------------------|
------------------------------------------------------|
------------------------------------------------------|
-10~--------10~--------10~----------7-7-7-------------|
------------------------------------7-7-7-------------|
----777-777----777-777---777-777----7-7-7-------------|
    *** ***    *** ***   *** ***


------------------------------------------------------|
------------------------------------------------------|
------------------------------------------------------|
-10~--------10~--------10~-------------10-------------|
------------------------------------------7-----------|
----777-777----777-777----777-777--7-10---------------|
    *** ***    *** ***    *** ***


------------------------------------------------------|
------------------------------------------------------|
------------------------------------------------------|
-10~--------10~--------10~-------------10-------------|
------------------------------------------7-----------|
----777-777----777-777----777-777--7-10---------------|
    *** ***    *** ***    *** ***


------------------------------------------------------|
------------------------------------------------------|
------------------------------------------------------|
-10~--------10~--------10~-------------10-------------|
------------------------------------------7-----------|
----777-777----777-777----777-777--7-10---------------|
    *** ***    *** ***    *** ***


------------------------------------------------------|
------------------------------------------------------|
------------------------------------------------------|
-10~--------10~--------10~-------------10--------10---|
------------------------------------------7---------7-|
----777-777----777-777----777-777--7-10------7-10-----|
    *** ***    *** ***    *** ***


------------|
------------|
------------|
-----10-----|
--------7---|
-7-10-------|

----------------------------------------------------|
----------------------------------------------------|
--------5-5-5-5-5-5-5-5-----------------------------|
-7------5-5-5-5-5-5-5-5-----3--------2---------5----|
-7------3-3-3-3-3-3-3-3-----3--------2--8x-----5----|
-7--------------------------3--------2---------5----|

chorus
-------------------------------------------------------|
-------------------------------------------------------|
--------------5----------------------------------------|
-7------------5--16x------3-----------2------------5---|
-7--16x-------3-----------3--16x------2--8x--------5---|8x
-7------------------------3-----------2------------5---|

------------------------------------------------------|
------------------------------------------------------|
--------------5---------------------------------------|
-7------------5--16x------3-----------2------------5--|
-7--16x-------3-----------3--16x------2--8x--------5--|
-7------------------------3-----------2------------5--|


outro
------------------------------------------------------|
------------------------------------------------------|
------------------------------------------------------|
-10~--------10~--------10~-------------10-------------|
------------------------------------------7-----------|
----777-777----777-777----777-777--7-10---------------|
    *** ***    *** ***    *** ***


------------------------------------------------------|
------------------------------------------------------|
------------------------------------------------------|
-10~--------10~--------10~-------------10--------10---|
------------------------------------------7---------7-|
----777-777----777-777----777-777--7-10------7-10-----|
    *** ***    *** ***    *** ***


------------|
------------|
------------|
-----10-----|
--------7---|
-7-10-------|
Suggest correction
Give kudos to tab author, rate the tab!
1 2 3 4 5
comments
print report bad tab
guest
You may want to rate the tab now too:
select rating
Wanna post a correction for this tab? Suggest correction