Oops, an error
Loading. Please wait.

The Flood Bass Tab

version 6
version 6
1,266 views 1 this week
no commentswrite comment
1 2 3 4 5
x 3
add to favorites
launch autoscroll
font size
0
reset
guitar tuner
Autoscroll
slow
fast
+/-
esc
set tempo
stop
Help us to improve Ultimate-Guitar.com Take our survey!
×
Author
Difficulty
Tuning
intermediate
C G C F A D
With this tab, I corrected a tab from this sit, and made it a whole lot funner to play 
gave it a really nice playful feel. I think it’s a lot more catchy and fun to play now. 
rate!!!

Note : this was all original i promise.

----------------------------------------------------------------------------
	  The Flood - Escape the Fate
----------------------------------------------------------------------------
Tuning: Drop C

Intro:
F|--------9---------------------------------------------------------------|
C|--9-10-9-10-x2--------------------------2-------------------------------|
G|00-------------------------------2-3-2-3-x2-------14-14-14-14-14-2-2-2-2|
C|----------------3-3-3-3-3-3-3-3-0---------------------------------------|

Verse:
F|------------------------------------------------------------------------|
C|------------------------------------------------------------------------|
G|0000000000000000--------------------------------222222222222222---------|
C|----------------33333333333333330000000000000000---------------777777777|

F|------------------------------------------------------------------------|
C|------------------------------------------------------------------------|
G|-0---0---0---0---------------------------------2222222222222222---------|
C|--------------3--3---3---3----30-0--0---0---0------------------777777777|

Pre-Chorus:
F|----------------------------------|
C|----------------------------------|
G|----------------------------------|
C|0000000022222333444455566677777777|

Chorus
F|----------------------------------------------------------------|
C|----------------------------------------------------------------| X2
G|00000000000000003333333333333333--------------------------------|
C|--------------------------------33333333333333332222222222-2-2-2|

Intro:
F|--------9---------------------------------------------------------------|
C|--9-10-9-10-x2--------------------------2-------------------------------|
G|00-------------------------------2-3-2-3-x2-------14-14-14-14-12-2-2-2-2|
C|----------------3-3-3-3-3-3-3-3-0---------------------------------------|

Verse:
F|------------------------------------------------------------------------|
C|------------------------------------------------------------------------|
G|0000000000000000--------------------------------222222222222222---------|
C|----------------33333333333333330000000000000000---------------777777777|

F|------------------------------------------------------------------------|
C|------------------------------------------------------------------------|
G|-0---0---0---0---------------------------------2222222222222222---------|
C|--------------33333333333333333-0-0-0-0-0-0-0-0----------------777777777|
Pre-Chorus:
F|---------------------|
C|---------------------|
G|---------------------|
C|000000000000023345667|

Chorus
F|-------------------------------------------------------------=--|
C|----------------------------------------------------------------| X2
G|00000000000000003333333333333333--------------------------------|
C|--------------------------------33333333333333332222222222222222|

Break:
F|------------------------------------------------|
C|------------------------------------------------|
G|12-------12-12-------12--------12-------12-12-12|
C|------------------------------------------------|

F|-----------------------------------------------|
C|-------------------------------------------10--|
G|12-000-000--12-000-000--12-000-000-------7---11| X4
C|---------------------------------------10------|

F|-------------|
C|--------10---|
G|-----7-----11| X3
C|-10----------|

Chorus
F|----------------------------------------|
C|----------------------------------------|
G|0---------------3-3-3-33----------------|
C|------------------------3-33----22222222|

Chorus
F|----------------------------------------------------------------|
C|----------------------------------------------------------------| X2
G|----------------3333333333333333--------------------------------|
C|7777777777777777----------------33333333333333332222222222222222|

F|---------------------------------------|
C|---------------------------------------|
G|0000000000033333333333-----------------|
C|----------------------3-2-1-0-222222222|

F|----------------------------------------|
C|----------------------------------------|
G|0000000000033333333333------------------|
C|----------------------3-5-7-10-222222222|

Ending:
F|-----------------------------------------------|
C|-------------------------------------------10--|
G|12-000-000--12-000-000--12-000-000-------7---11| X2
C|---------------------------------------10------|
Suggest correction
Give kudos to tab author, rate the tab!
1 2 3 4 5
comments
print report bad tab
guest
You may want to rate the tab now too:
select rating
Wanna post a correction for this tab? Suggest correction