Oops, an error
Loading. Please wait.

The Flood Tab

version 6
17,895 views 6 this week
3 commentsread comments
1 2 3 4 5
excellent!
x 5
add to favorites
launch autoscroll
font size
0
reset
how to read this tab
guitar tuner
Autoscroll
slow
fast
+/-
esc
set tempo
stop
Help us to improve Ultimate-Guitar.com Take our survey!
×
Author
Tuning: Drop C

\ = slide down
<>= pinch harmonic

Intro
D|----------------------------------------------------|
A|----------------------------------------------------|
F|------------------------------<4>-------------------|
C|----------------------3-3-3-3-------------2---------|
G|------------7----(x2)-3-3-3-3-----0-0-2-3---3-(x2)--|
C|---7-7-7-10---10------3-3-3-3-----------------------|


D|---------------------------|
A|---------------------------|
F|-44444444--13-13-13-13-13--|
C|-44444444--x--x--x--x--x---|
G|-22222222--11-11-11-11-11--|
C|---------------------------|

Verse
D|----------------------------------------------------------------------|
A|----------------------------------------------------------------------|
F|-------------------------------------------44444444-1313131313131313--|
C|-7777777777777-3333333333333-0000000000000-44444444--x-x-x-x-x-x-x-x--|
G|-7777777777777-3333333333333-0000000000000-22222222-1111111111111111--|
C|-7777777777777-3333333333333-0000000000000----------------------------|


D|------------------------------------------------------------------|
A|------------------------------------------------------------------|
F|---------------------------------------44444444-1313131313131313--|
C|-7--7--777--3--3--3--333--0--0--0--000-xxxxxxxx--x-x-x-x-x-x-x-x--|
G|-7--7--777--3--3--3--333--0--0--0--000-22222222-1111111111111111--|
C|-7--7--777--3--3--3--333--0--0--0--000----------------------------|


D|----------------------------------|
A|----------------------------------|
F|----------------------------------|
C|-00000000000000-2-3333333-55-66-7-|
G|-00000000000000-2-3333333-55-66-7-|
C|-00000000000000-2-3333333-55-66-7-|


Chorus
D|------------------------------------------------------------|
A|------------------------------------------------------------|
F|------------------5555555555555555--------------------------|
C|-7777777777777777-5555555555555555-333333333333333----------|
G|-7777777777777777-3333333333333335-333333333333333----------|
C|-7777777777777777------------------333333333333333----------|

D|---------------------------|
A|---------------------------|
F|---------------------------|
C|-222222222222222-----------|
G|-222222222222222-----------|
C|-222222222222222-----------|

D|------------------------------------------------------------|
A|------------------------------------------------------------|
F|------------------5555555555555555--------------------------|
C|-7777777777777777-5555555555555555-333333333333333----------|
G|-7777777777777777-3333333333333335-333333333333333----------|
C|-7777777777777777------------------333333333333333----------|

D|---------------------------|
A|---------------------------|
F|---------------------------|
C|-22222222-3\---------------|
G|-22222222-3\---------------|
C|-22222222-3\---------------|

(Repeat Intro)

Verse 2
D|-------------------------------------------------|
A|-------------------------------------------------|
F|----------------------44444444-1313131313131313--|
C|-7----7-3----3-0----0-44444444--x-x-x-x-x-x-x-x--|
G|-7----7-3----3-0----0-22222222-1111111111111111--|
C|-7----7-3----3-0----0----------------------------|


D|-------------------------------------------------------------------|
A|-------------------------------------------------------------------|
F|-------------------------------------------------------------------|
C|-7--7--7--7-7-7--3-333-333-333-333-333-333-3-3-0~~-0--0--0--0-0-0--|
G|-7--7--7--7-7-7--3-333-333-333-333-333-333-3-3-0~~-0--0--0--0-0-0--|
C|-7--7--7--7-7-7--3-333-333-333-333-333-333-3-3-0~~-0--0--0--0-0-0--|

D|-----------------------------|
A|-----------------------------|
F|--44444444-1313131313131313--|
C|--44444444--x-x-x-x-x-x-x-x--|
G|--22222222-1111111111111111--|
C|-----------------------------|


D|-----------------------------------|
A|-----------------------------------|
F|-----------------------------------|
C|-00000000000000-2-3333333-2-3-5-6--|
G|-00000000000000-2-3333333-2-3-5-6--|
C|-00000000000000-2-3333333-2-3-5-6--|

(Repeat Chorus)


D|-----------------------------|
A|-----------------------------|
F|-------------------------5---|
C|-<6>-777-777---------------6-|  <---This whole part repeated twice.
G|-----777-777---(x3)--3-7-----|
C|-----777-777-----------------|


D|--------------------------------------|
A|--------------------------------------|
F|-----------------------------5--------|
C|----7-777--7-777--7-777--------6--x2--|
G|----7-777--7-777--7-777--3-7----------|
C|----7-777--7-777--7-777---------------|

D|----------------------------------------------------|
A|----------------------------------------------------|
F|---------5---------5--------------------------------|
C|----------6-x2-------6-9-6-9-6-9-6-9-6-9-6-9-6-9-6-9| lol I'm not sure how
G|-----3-7-------3-7----------------------------------| many times that 6-9
C|----------------------------------------------------| tapping part is
                                                        repeated, so i'll
                                                        leave that up to you

Final Chorus
D|------------------------------------------------------------|
A|------------------------------------------------------------|
F|----------------5-5-5-5-5-5-555-----------------------------|
C|-7-7-777-7\-----5-5-5-5-5-5-555--3~~~-3---2~~~-3\-----------|
G|-7-7-777-7\-----3-3-3-3-3-3-333--3~~~-3---2~~~-3\-----------|
C|-7-7-777-7\----------------------3~~~-3---2~~~-3\-----------|


D|------------------------------------------------------------|
A|------------------------------------------------------------|
F|------------------5555555555555555--------------------------|
C|-7777777777777777-5555555555555555-333333333333333----------|
G|-7777777777777777-3333333333333335-333333333333333----------|
C|-7777777777777777------------------333333333333333----------|

D|---------------------------|
A|---------------------------|
F|---------------------------|
C|-222222222222222-----------|
G|-222222222222222-----------|
C|-222222222222222-----------|

D|------------------------------------------------------------|
A|------------------------------------------------------------|
F|------------------5555555555555555--------------------------|
C|-7777777777777777-5555555555555555-333333333333333----------|
G|-7777777777777777-3333333333333335-333333333333333----------|
C|-7777777777777777------------------333333333333333----------|

D|---------------------------|
A|---------------------------|
F|---------------------------|
C|-22222222-3\---------------|
G|-22222222-3\---------------|
C|-22222222-3\---------------|

Outro
D|-----------------------------|
A|-----------------------------|
F|-------------------------5---|
C|-<6>-777-777---------------6-| once again, repeat this whole part twice
G|-----777-777---(x3)--3-7-----|
C|-----777-777-----------------|

D|-----------------|
A|-----------------|
F|---------5-------|
C|-----------6-x3--|
G|-----3-7---------|
C|-----------------|

There you go.. I think I did that right.. Let me know if I have any mistakes.. I did it 
off the top of my head so it is possible that there are a couple here and there, but for 
most part it should be correct!
Suggest correction
comments
print report bad tab
3 comments total.
0 reply
rockerep 31 wrote on March 12 2009, 06:53 pm

this sounds like guitar 2

0 reply
18guitardude18 62 wrote on March 20 2009, 03:23 pm

There's only one guitar

0 reply
SumFX 2,564 wrote on October 19 2009, 12:18 pm

the magic of the studio.
2 guitars, just cuz there 1 in the band doesnt mean there is one guitar playing on the studio recorded version.
listen to there songs closely, you will notice 2 guitars

guest
You may want to rate the tab now too:
select rating
Wanna post a correction for this tab? Suggest correction